ISO-10303-21;
HEADER;
FILE_DESCRIPTION (( 'STEP AP203' ),
    '1' );
FILE_NAME ('200119.step',
    '2021-11-30T06:44:51',
    ( '' ),
    ( '' ),
    'SwSTEP 2.0',
    'SolidWorks 2019',
    '' );
FILE_SCHEMA (( 'CONFIG_CONTROL_DESIGN' ));
ENDSEC;

DATA;
#1 = PERSON_AND_ORGANIZATION_ROLE ( 'creator' ) ;
#2 = CIRCLE ( 'NONE', #145, 0.9749999999999987566 ) ;
#3 = PERSON_AND_ORGANIZATION ( #150, #90 ) ;
#4 = ORIENTED_EDGE ( 'NONE', *, *, #59, .T. ) ;
#5 = ORIENTED_EDGE ( 'NONE', *, *, #59, .F. ) ;
#6 = CYLINDRICAL_SURFACE ( 'NONE', #49, 1.499999999999999112 ) ;
#7 = CONICAL_SURFACE ( 'NONE', #250, 1.200000000000001732, 0.7853981633974453924 ) ;
#8 = CARTESIAN_POINT ( 'NONE',  ( 0.0000000000000000000, 0.0000000000000000000, 0.0000000000000000000 ) ) ;
#9 = DIRECTION ( 'NONE',  ( 0.0000000000000000000, 1.000000000000000000, 0.0000000000000000000 ) ) ;
#10 = EDGE_CURVE ( 'NONE', #296, #296, #93, .T. ) ;
#11 = DIRECTION ( 'NONE',  ( -3.491481338843133355E-15, 1.224646799147353207E-16, -1.000000000000000000 ) ) ;
#12 = ORIENTED_EDGE ( 'NONE', *, *, #289, .T. ) ;
#13 = CARTESIAN_POINT ( 'NONE',  ( 7.385321085756957784E-14, 1.499999999999994005, 21.15240028235123759 ) ) ;
#14 = FACE_OUTER_BOUND ( 'NONE', #88, .T. ) ;
#15 = EDGE_LOOP ( 'NONE', ( #265 ) ) ;
#16 = CIRCLE ( 'NONE', #29, 1.005384493975580273 ) ;
#17 = DIRECTION ( 'NONE',  ( -3.491481338843133355E-15, 1.224646799147353207E-16, -1.000000000000000000 ) ) ;
#18 = DIRECTION ( 'NONE',  ( -4.275831445896958607E-31, -1.000000000000000000, -1.224646799147353207E-16 ) ) ;
#19 = APPROVAL_STATUS ( 'not_yet_approved' ) ;
#20 = ORIENTED_EDGE ( 'NONE', *, *, #294, .F. ) ;
#21 = AXIS2_PLACEMENT_3D ( 'NONE', #110, #17, #67 ) ;
#22 = SECURITY_CLASSIFICATION_LEVEL ( 'unclassified' ) ;
#23 = DIRECTION ( 'NONE',  ( 1.000000000000000000, 0.0000000000000000000, 0.0000000000000000000 ) ) ;
#24 = CC_DESIGN_DATE_AND_TIME_ASSIGNMENT ( #300, #210, ( #80 ) ) ;
#25 = PERSON_AND_ORGANIZATION ( #150, #90 ) ;
#26 = COORDINATED_UNIVERSAL_TIME_OFFSET ( 1, 0, .AHEAD. ) ;
#27 = DIRECTION ( 'NONE',  ( 0.0000000000000000000, 1.000000000000000000, 0.0000000000000000000 ) ) ;
#28 = EDGE_LOOP ( 'NONE', ( #20 ) ) ;
#29 = AXIS2_PLACEMENT_3D ( 'NONE', #155, #204, #83 ) ;
#30 = FACE_OUTER_BOUND ( 'NONE', #255, .T. ) ;
#31 = CARTESIAN_POINT ( 'NONE',  ( 2.886013015238226509E-14, -1.012277099146737952E-15, 8.265869798961828607 ) ) ;
#32 = APPROVAL ( #94, 'UNSPECIFIED' ) ;
#33 = CARTESIAN_POINT ( 'NONE',  ( 8.728703347107827472E-16, -3.061616997868381169E-17, 0.2499999999999998335 ) ) ;
#34 = CARTESIAN_POINT ( 'NONE',  ( 0.0000000000000000000, 0.9841624327025949581, 0.0000000000000000000 ) ) ;
#35 = LOCAL_TIME ( 7, 44, 51.00000000000000000, #140 ) ;
#36 = ADVANCED_FACE ( 'NONE', ( #262 ), #121, .T. ) ;
#37 = VERTEX_POINT ( 'NONE', #197 ) ;
#38 = ORIENTED_EDGE ( 'NONE', *, *, #10, .F. ) ;
#39 = FACE_BOUND ( 'NONE', #217, .T. ) ;
#40 = FACE_OUTER_BOUND ( 'NONE', #156, .T. ) ;
#41 = CIRCLE ( 'NONE', #50, 1.499999999999996669 ) ;
#42 = CONICAL_SURFACE ( 'NONE', #181, 1.499999999999996669, 0.1745329251994263975 ) ;
#43 = CIRCLE ( 'NONE', #163, 1.128500000000000281 ) ;
#44 = FACE_OUTER_BOUND ( 'NONE', #192, .T. ) ;
#45 = ADVANCED_BREP_SHAPE_REPRESENTATION ( '200119', ( #139, #235, #56 ), #102 ) ;
#46 = CC_DESIGN_PERSON_AND_ORGANIZATION_ASSIGNMENT ( #117, #249, ( #128 ) ) ;
#47 = PERSON_AND_ORGANIZATION_ROLE ( 'design_supplier' ) ;
#48 = CALENDAR_DATE ( 2021, 30, 11 ) ;
#49 = AXIS2_PLACEMENT_3D ( 'NONE', #8, #168, #58 ) ;
#50 = AXIS2_PLACEMENT_3D ( 'NONE', #76, #190, #236 ) ;
#51 = COORDINATED_UNIVERSAL_TIME_OFFSET ( 1, 0, .AHEAD. ) ;
#52 = CC_DESIGN_PERSON_AND_ORGANIZATION_ASSIGNMENT ( #248, #138, ( #254 ) ) ;
#53 = ORIENTED_EDGE ( 'NONE', *, *, #289, .F. ) ;
#54 = SHAPE_DEFINITION_REPRESENTATION ( #256, #45 ) ;
#55 = EDGE_CURVE ( 'NONE', #87, #87, #177, .T. ) ;
#56 = AXIS2_PLACEMENT_3D ( 'NONE', #92, #185, #23 ) ;
#57 = DIRECTION ( 'NONE',  ( -3.491481338843133355E-15, 1.224646799147353207E-16, -1.000000000000000000 ) ) ;
#58 = DIRECTION ( 'NONE',  ( 4.275831445896958607E-31, 1.000000000000000000, 1.224646799147353454E-16 ) ) ;
#59 = EDGE_CURVE ( 'NONE', #105, #105, #2, .T. ) ;
#60 = DIRECTION ( 'NONE',  ( 3.491481338843133355E-15, -1.224646799147353207E-16, 1.000000000000000000 ) ) ;
#61 = DIRECTION ( 'NONE',  ( -3.491481338843133355E-15, 1.224646799147353207E-16, -1.000000000000000000 ) ) ;
#62 = DIRECTION ( 'NONE',  ( -3.491481338843133355E-15, 1.224646799147353207E-16, -1.000000000000000000 ) ) ;
#63 = EDGE_LOOP ( 'NONE', ( #215 ) ) ;
#64 = AXIS2_PLACEMENT_3D ( 'NONE', #69, #223, #178 ) ;
#65 = EDGE_LOOP ( 'NONE', ( #269 ) ) ;
#66 = CARTESIAN_POINT ( 'NONE',  ( 6.405924284287275164E-14, 1.005384493975578053, 18.34729635533384595 ) ) ;
#67 = DIRECTION ( 'NONE',  ( 0.0000000000000000000, 1.000000000000000000, 0.0000000000000000000 ) ) ;
#68 = CYLINDRICAL_SURFACE ( 'NONE', #71, 1.128499999999999837 ) ;
#69 = CARTESIAN_POINT ( 'NONE',  ( 2.793185071074506684E-14, -9.797174393178825657E-16, 8.000000000000000000 ) ) ;
#70 = CALENDAR_DATE ( 2021, 30, 11 ) ;
#71 = AXIS2_PLACEMENT_3D ( 'NONE', #202, #180, #135 ) ;
#72 = CALENDAR_DATE ( 2021, 30, 11 ) ;
#73 =( NAMED_UNIT ( * ) PLANE_ANGLE_UNIT ( ) SI_UNIT ( $, .RADIAN. ) );
#74 = APPROVAL_DATE_TIME ( #186, #165 ) ;
#75 = CARTESIAN_POINT ( 'NONE',  ( 1.745740669421566678E-13, -6.123233995736766085E-15, 50.00000000000000000 ) ) ;
#76 = CARTESIAN_POINT ( 'NONE',  ( 7.385321085756957784E-14, -2.590421930006501439E-15, 21.15240028235123759 ) ) ;
#77 = FACE_OUTER_BOUND ( 'NONE', #268, .T. ) ;
#78 = CARTESIAN_POINT ( 'NONE',  ( 2.886013015238226509E-14, -1.012277099146737952E-15, 8.265869798961828607 ) ) ;
#79 = PLANE ( 'NONE',  #280 ) ;
#80 = PRODUCT_DEFINITION ( 'UNKNOWN', '', #254, #97 ) ;
#81 = CARTESIAN_POINT ( 'NONE',  ( 6.284666409917640040E-14, -2.168404344971008868E-15, 18.00000000000000000 ) ) ;
#82 = ORIENTED_EDGE ( 'NONE', *, *, #294, .T. ) ;
#83 = DIRECTION ( 'NONE',  ( 0.0000000000000000000, 1.000000000000000000, 0.0000000000000000000 ) ) ;
#84 = CLOSED_SHELL ( 'NONE', ( #203, #136, #245, #36 ) ) ;
#85 = DIRECTION ( 'NONE',  ( -3.491481338843133355E-15, 1.224646799147353207E-16, -1.000000000000000000 ) ) ;
#86 = ADVANCED_FACE ( 'NONE', ( #30, #100 ), #7, .T. ) ;
#87 = VERTEX_POINT ( 'NONE', #179 ) ;
#88 = EDGE_LOOP ( 'NONE', ( #12 ) ) ;
#89 = VERTEX_POINT ( 'NONE', #264 ) ;
#90 = ORGANIZATION ( 'UNSPECIFIED', 'UNSPECIFIED', '' ) ;
#91 = PERSON_AND_ORGANIZATION ( #150, #90 ) ;
#92 = CARTESIAN_POINT ( 'NONE',  ( 0.0000000000000000000, 0.0000000000000000000, 0.0000000000000000000 ) ) ;
#93 = CIRCLE ( 'NONE', #134, 0.9750000000000001998 ) ;
#94 = APPROVAL_STATUS ( 'not_yet_approved' ) ;
#95 = CALENDAR_DATE ( 2021, 30, 11 ) ;
#96 = DIRECTION ( 'NONE',  ( 0.0000000000000000000, 1.000000000000000000, 0.0000000000000000000 ) ) ;
#97 = DESIGN_CONTEXT ( 'detailed design', #172, 'design' ) ;
#98 = DIRECTION ( 'NONE',  ( -4.275831445896958607E-31, -1.000000000000000000, -1.224646799147353207E-16 ) ) ;
#99 = EDGE_CURVE ( 'NONE', #220, #220, #41, .T. ) ;
#100 = FACE_BOUND ( 'NONE', #15, .T. ) ;
#101 = PLANE ( 'NONE',  #231 ) ;
#102 =( GEOMETRIC_REPRESENTATION_CONTEXT ( 3 ) GLOBAL_UNCERTAINTY_ASSIGNED_CONTEXT ( ( #283 ) ) GLOBAL_UNIT_ASSIGNED_CONTEXT ( ( #243, #73, #137 ) ) REPRESENTATION_CONTEXT ( 'NONE', 'WORKASPACE' ) );
#103 = CC_DESIGN_PERSON_AND_ORGANIZATION_ASSIGNMENT ( #276, #1, ( #80 ) ) ;
#104 = DIRECTION ( 'NONE',  ( -3.491481338843133355E-15, 1.224646799147353207E-16, -1.000000000000000000 ) ) ;
#105 = VERTEX_POINT ( 'NONE', #244 ) ;
#106 = DIRECTION ( 'NONE',  ( -3.491481338843133355E-15, 1.224646799147353207E-16, -1.000000000000000000 ) ) ;
#107 = VERTEX_POINT ( 'NONE', #297 ) ;
#108 = SECURITY_CLASSIFICATION ( '', '', #22 ) ;
#109 = EDGE_CURVE ( 'NONE', #107, #107, #43, .T. ) ;
#110 = CARTESIAN_POINT ( 'NONE',  ( 1.735266225405037467E-13, -6.086494591762345225E-15, 49.70000000000000284 ) ) ;
#111 = CARTESIAN_POINT ( 'NONE',  ( 7.385321085756957784E-14, -2.590421930006501439E-15, 21.15240028235123759 ) ) ;
#112 = APPROVAL_ROLE ( '' ) ;
#113 = ADVANCED_FACE ( 'NONE', ( #212, #77 ), #6, .T. ) ;
#114 = CONICAL_SURFACE ( 'NONE', #259, 1.128499999999999392, 0.5235987755982928205 ) ;
#115 = COORDINATED_UNIVERSAL_TIME_OFFSET ( 1, 0, .AHEAD. ) ;
#116 = DATE_AND_TIME ( #72, #166 ) ;
#117 = PERSON_AND_ORGANIZATION ( #150, #90 ) ;
#118 = CIRCLE ( 'NONE', #21, 1.500000000000001554 ) ;
#119 = CALENDAR_DATE ( 2021, 30, 11 ) ;
#120 = FACE_BOUND ( 'NONE', #221, .T. ) ;
#121 = PLANE ( 'NONE',  #199 ) ;
#122 = AXIS2_PLACEMENT_3D ( 'NONE', #31, #124, #216 ) ;
#123 = DIRECTION ( 'NONE',  ( -5.119884654994869901E-31, -1.000000000000000000, -1.441119414025926035E-16 ) ) ;
#124 = DIRECTION ( 'NONE',  ( -3.491481338843133355E-15, 1.224646799147353207E-16, -1.000000000000000000 ) ) ;
#125 = DIRECTION ( 'NONE',  ( 4.275831445896958607E-31, 1.000000000000000000, 1.224646799147353207E-16 ) ) ;
#126 = CC_DESIGN_APPROVAL ( #165, ( #254 ) ) ;
#127 = CARTESIAN_POINT ( 'NONE',  ( -4.208112677620204044E-31, 1.476007236174008951E-32, -1.205251373050305335E-16 ) ) ;
#128 = PRODUCT ( '200119', '200119', '', ( #206 ) ) ;
#129 = DIRECTION ( 'NONE',  ( 4.275831445896958607E-31, 1.000000000000000000, 1.224646799147353207E-16 ) ) ;
#130 = ORIENTED_EDGE ( 'NONE', *, *, #55, .F. ) ;
#131 = DIRECTION ( 'NONE',  ( 4.275831445896957731E-31, 1.000000000000000000, 1.224646799147353207E-16 ) ) ;
#132 = CLOSED_SHELL ( 'NONE', ( #142, #154, #282, #303, #234, #113, #86, #160 ) ) ;
#133 = AXIS2_PLACEMENT_3D ( 'NONE', #173, #62, #96 ) ;
#134 = AXIS2_PLACEMENT_3D ( 'NONE', #287, #104, #27 ) ;
#135 = DIRECTION ( 'NONE',  ( 4.275831445896958607E-31, 1.000000000000000000, 1.224646799147352961E-16 ) ) ;
#136 = ADVANCED_FACE ( 'NONE', ( #240, #257 ), #114, .T. ) ;
#137 =( NAMED_UNIT ( * ) SI_UNIT ( $, .STERADIAN. ) SOLID_ANGLE_UNIT ( ) );
#138 = PERSON_AND_ORGANIZATION_ROLE ( 'creator' ) ;
#139 = MANIFOLD_SOLID_BREP ( 'Corps-Déplacer/Copier1[1]', #132 ) ;
#140 = COORDINATED_UNIVERSAL_TIME_OFFSET ( 1, 0, .AHEAD. ) ;
#141 = DATE_AND_TIME ( #48, #35 ) ;
#142 = ADVANCED_FACE ( 'NONE', ( #213 ), #101, .F. ) ;
#143 = DIRECTION ( 'NONE',  ( 0.0000000000000000000, 1.000000000000000000, 0.0000000000000000000 ) ) ;
#144 = DIRECTION ( 'NONE',  ( 3.491481338843133355E-15, -1.224646799147353207E-16, 1.000000000000000000 ) ) ;
#145 = AXIS2_PLACEMENT_3D ( 'NONE', #78, #57, #211 ) ;
#146 = AXIS2_PLACEMENT_3D ( 'NONE', #247, #225, #18 ) ;
#147 = DIRECTION ( 'NONE',  ( -4.275831445896958607E-31, -1.000000000000000000, -1.224646799147353207E-16 ) ) ;
#148 = DIRECTION ( 'NONE',  ( -3.491481338843133355E-15, 1.224646799147353207E-16, -1.000000000000000000 ) ) ;
#149 = CC_DESIGN_PERSON_AND_ORGANIZATION_ASSIGNMENT ( #301, #302, ( #108 ) ) ;
#150 = PERSON ( 'UNSPECIFIED', 'UNSPECIFIED', 'UNSPECIFIED', ('UNSPECIFIED'), ('UNSPECIFIED'), ('UNSPECIFIED') ) ;
#151 = CARTESIAN_POINT ( 'NONE',  ( 2.793185071074506684E-14, -9.797174393178825657E-16, 8.000000000000000000 ) ) ;
#152 = CIRCLE ( 'NONE', #133, 1.200000000000001732 ) ;
#153 = CYLINDRICAL_SURFACE ( 'NONE', #293, 0.9749999999999995337 ) ;
#154 = ADVANCED_FACE ( 'NONE', ( #239, #120 ), #252, .T. ) ;
#155 = CARTESIAN_POINT ( 'NONE',  ( 6.405924284287275164E-14, -2.246895775456749140E-15, 18.34729635533384595 ) ) ;
#156 = EDGE_LOOP ( 'NONE', ( #5 ) ) ;
#157 = DIRECTION ( 'NONE',  ( -3.491481338843133355E-15, 1.224646799147353207E-16, -1.000000000000000000 ) ) ;
#158 = FACE_OUTER_BOUND ( 'NONE', #167, .T. ) ;
#159 = CC_DESIGN_SECURITY_CLASSIFICATION ( #108, ( #254 ) ) ;
#160 = ADVANCED_FACE ( 'NONE', ( #171 ), #79, .F. ) ;
#161 = FACE_OUTER_BOUND ( 'NONE', #271, .T. ) ;
#162 = DATE_AND_TIME ( #70, #232 ) ;
#163 = AXIS2_PLACEMENT_3D ( 'NONE', #151, #290, #9 ) ;
#164 = DATE_TIME_ROLE ( 'classification_date' ) ;
#165 = APPROVAL ( #19, 'UNSPECIFIED' ) ;
#166 = LOCAL_TIME ( 7, 44, 51.00000000000000000, #115 ) ;
#167 = EDGE_LOOP ( 'NONE', ( #273 ) ) ;
#168 = DIRECTION ( 'NONE',  ( -3.491481338843133355E-15, 1.224646799147353207E-16, -1.000000000000000000 ) ) ;
#169 = CARTESIAN_POINT ( 'NONE',  ( 8.728703347107827472E-16, -3.061616997868381169E-17, 0.2499999999999998335 ) ) ;
#170 = EDGE_LOOP ( 'NONE', ( #194 ) ) ;
#171 = FACE_OUTER_BOUND ( 'NONE', #63, .T. ) ;
#172 = APPLICATION_CONTEXT ( 'configuration controlled 3d designs of mechanical parts and assemblies' ) ;
#173 = CARTESIAN_POINT ( 'NONE',  ( 1.745740669421566678E-13, -6.123233995736766085E-15, 50.00000000000000000 ) ) ;
#174 = EDGE_LOOP ( 'NONE', ( #263 ) ) ;
#175 = PLANE ( 'NONE',  #146 ) ;
#176 = FACE_OUTER_BOUND ( 'NONE', #65, .T. ) ;
#177 = CIRCLE ( 'NONE', #275, 1.128499999999999392 ) ;
#178 = DIRECTION ( 'NONE',  ( 0.0000000000000000000, 1.000000000000000000, 0.0000000000000000000 ) ) ;
#179 = CARTESIAN_POINT ( 'NONE',  ( 8.728703347107833388E-16, 1.128499999999999392, 0.2500000000000000000 ) ) ;
#180 = DIRECTION ( 'NONE',  ( -3.491481338843133355E-15, 1.224646799147353207E-16, -1.000000000000000000 ) ) ;
#181 = AXIS2_PLACEMENT_3D ( 'NONE', #111, #224, #198 ) ;
#182 = APPROVAL_STATUS ( 'not_yet_approved' ) ;
#183 = PERSON_AND_ORGANIZATION ( #150, #90 ) ;
#184 = APPROVAL_PERSON_ORGANIZATION ( #91, #277, #253 ) ;
#185 = DIRECTION ( 'NONE',  ( 0.0000000000000000000, 0.0000000000000000000, 1.000000000000000000 ) ) ;
#186 = DATE_AND_TIME ( #95, #195 ) ;
#187 = EDGE_CURVE ( 'NONE', #37, #37, #152, .T. ) ;
#188 = DIRECTION ( 'NONE',  ( 3.491481338843133355E-15, -1.224646799147353207E-16, 1.000000000000000000 ) ) ;
#189 = CIRCLE ( 'NONE', #64, 1.128500000000000281 ) ;
#190 = DIRECTION ( 'NONE',  ( -3.491481338843133355E-15, 1.224646799147353207E-16, -1.000000000000000000 ) ) ;
#191 = EDGE_LOOP ( 'NONE', ( #278 ) ) ;
#192 = EDGE_LOOP ( 'NONE', ( #130 ) ) ;
#193 = APPLICATION_CONTEXT ( 'configuration controlled 3d designs of mechanical parts and assemblies' ) ;
#194 = ORIENTED_EDGE ( 'NONE', *, *, #99, .F. ) ;
#195 = LOCAL_TIME ( 7, 44, 51.00000000000000000, #51 ) ;
#196 = DIRECTION ( 'NONE',  ( 5.119884654994869901E-31, 1.000000000000000000, 1.441119414025926035E-16 ) ) ;
#197 = CARTESIAN_POINT ( 'NONE',  ( 1.745740669421566678E-13, 1.199999999999995515, 50.00000000000000000 ) ) ;
#198 = DIRECTION ( 'NONE',  ( 0.0000000000000000000, -1.000000000000000000, 0.0000000000000000000 ) ) ;
#199 = AXIS2_PLACEMENT_3D ( 'NONE', #241, #144, #98 ) ;
#200 = APPROVAL_PERSON_ORGANIZATION ( #183, #32, #112 ) ;
#201 = FACE_OUTER_BOUND ( 'NONE', #233, .T. ) ;
#202 = CARTESIAN_POINT ( 'NONE',  ( 0.0000000000000000000, 0.0000000000000000000, 0.0000000000000000000 ) ) ;
#203 = ADVANCED_FACE ( 'NONE', ( #201 ), #175, .F. ) ;
#204 = DIRECTION ( 'NONE',  ( -3.491481338843133355E-15, 1.224646799147353207E-16, -1.000000000000000000 ) ) ;
#205 = LOCAL_TIME ( 7, 44, 51.00000000000000000, #26 ) ;
#206 = MECHANICAL_CONTEXT ( 'NONE', #193, 'mechanical' ) ;
#207 = APPLICATION_PROTOCOL_DEFINITION ( 'international standard', 'config_control_design', 1994, #172 ) ;
#208 = AXIS2_PLACEMENT_3D ( 'NONE', #81, #85, #267 ) ;
#209 = EDGE_CURVE ( 'NONE', #292, #292, #219, .T. ) ;
#210 = DATE_TIME_ROLE ( 'creation_date' ) ;
#211 = DIRECTION ( 'NONE',  ( 0.0000000000000000000, 1.000000000000000000, 0.0000000000000000000 ) ) ;
#212 = FACE_OUTER_BOUND ( 'NONE', #170, .T. ) ;
#213 = FACE_OUTER_BOUND ( 'NONE', #238, .T. ) ;
#214 = ORIENTED_EDGE ( 'NONE', *, *, #109, .T. ) ;
#215 = ORIENTED_EDGE ( 'NONE', *, *, #187, .F. ) ;
#216 = DIRECTION ( 'NONE',  ( 0.0000000000000000000, 1.000000000000000000, 0.0000000000000000000 ) ) ;
#217 = EDGE_LOOP ( 'NONE', ( #53 ) ) ;
#218 = EDGE_LOOP ( 'NONE', ( #38 ) ) ;
#219 = CIRCLE ( 'NONE', #299, 0.9841624327025949581 ) ;
#220 = VERTEX_POINT ( 'NONE', #13 ) ;
#221 = EDGE_LOOP ( 'NONE', ( #4 ) ) ;
#222 = VERTEX_POINT ( 'NONE', #291 ) ;
#223 = DIRECTION ( 'NONE',  ( -3.491481338843133355E-15, 1.224646799147353207E-16, -1.000000000000000000 ) ) ;
#224 = DIRECTION ( 'NONE',  ( 3.491481338843133355E-15, -1.224646799147353207E-16, 1.000000000000000000 ) ) ;
#225 = DIRECTION ( 'NONE',  ( 3.491481338843133355E-15, -1.224646799147353207E-16, 1.000000000000000000 ) ) ;
#226 = TOROIDAL_SURFACE ( 'NONE', #208, 2.974999999999999645, 2.000000000000000000 ) ;
#227 = CC_DESIGN_PERSON_AND_ORGANIZATION_ASSIGNMENT ( #25, #47, ( #254 ) ) ;
#228 = APPROVAL_ROLE ( '' ) ;
#229 = ORIENTED_EDGE ( 'NONE', *, *, #209, .T. ) ;
#230 = APPROVAL_DATE_TIME ( #141, #32 ) ;
#231 = AXIS2_PLACEMENT_3D ( 'NONE', #258, #60, #147 ) ;
#232 = LOCAL_TIME ( 7, 44, 51.00000000000000000, #274 ) ;
#233 = EDGE_LOOP ( 'NONE', ( #229 ) ) ;
#234 = ADVANCED_FACE ( 'NONE', ( #39, #158 ), #42, .T. ) ;
#235 = MANIFOLD_SOLID_BREP ( 'Corps-Déplacer/Copier1[2]', #84 ) ;
#236 = DIRECTION ( 'NONE',  ( 0.0000000000000000000, 1.000000000000000000, 0.0000000000000000000 ) ) ;
#237 = CC_DESIGN_DATE_AND_TIME_ASSIGNMENT ( #116, #164, ( #108 ) ) ;
#238 = EDGE_LOOP ( 'NONE', ( #82 ) ) ;
#239 = FACE_OUTER_BOUND ( 'NONE', #28, .T. ) ;
#240 = FACE_BOUND ( 'NONE', #191, .T. ) ;
#241 = CARTESIAN_POINT ( 'NONE',  ( 2.793185071074506684E-14, 8.462394573669518880E-33, 8.000000000000000000 ) ) ;
#242 = CC_DESIGN_APPROVAL ( #277, ( #108 ) ) ;
#243 =( LENGTH_UNIT ( ) NAMED_UNIT ( * ) SI_UNIT ( .MILLI., .METRE. ) );
#244 = CARTESIAN_POINT ( 'NONE',  ( 2.886013015238226509E-14, 0.9749999999999977573, 8.265869798961828607 ) ) ;
#245 = ADVANCED_FACE ( 'NONE', ( #44, #161 ), #68, .T. ) ;
#246 = CC_DESIGN_APPROVAL ( #32, ( #80 ) ) ;
#247 = CARTESIAN_POINT ( 'NONE',  ( -2.104056338810102022E-31, 7.380036180870044753E-33, -6.026256865251526675E-17 ) ) ;
#248 = PERSON_AND_ORGANIZATION ( #150, #90 ) ;
#249 = PERSON_AND_ORGANIZATION_ROLE ( 'design_owner' ) ;
#250 = AXIS2_PLACEMENT_3D ( 'NONE', #75, #148, #143 ) ;
#251 = APPROVAL_DATE_TIME ( #162, #277 ) ;
#252 = CONICAL_SURFACE ( 'NONE', #122, 0.9749999999999987566, 0.5235987755982928205 ) ;
#253 = APPROVAL_ROLE ( '' ) ;
#254 = PRODUCT_DEFINITION_FORMATION_WITH_SPECIFIED_SOURCE ( 'ANY', '', #128, .NOT_KNOWN. ) ;
#255 = EDGE_LOOP ( 'NONE', ( #284 ) ) ;
#256 = PRODUCT_DEFINITION_SHAPE ( 'NONE', 'NONE',  #80 ) ;
#257 = FACE_OUTER_BOUND ( 'NONE', #286, .T. ) ;
#258 = CARTESIAN_POINT ( 'NONE',  ( 2.793185071074506684E-14, 8.462394573669518880E-33, 8.000000000000000000 ) ) ;
#259 = AXIS2_PLACEMENT_3D ( 'NONE', #169, #188, #123 ) ;
#260 = CARTESIAN_POINT ( 'NONE',  ( 1.745740669421566678E-13, 8.998558695971067645E-33, 50.00000000000000000 ) ) ;
#261 = EDGE_CURVE ( 'NONE', #222, #222, #118, .T. ) ;
#262 = FACE_OUTER_BOUND ( 'NONE', #174, .T. ) ;
#263 = ORIENTED_EDGE ( 'NONE', *, *, #109, .F. ) ;
#264 = CARTESIAN_POINT ( 'NONE',  ( 2.793185071074506684E-14, 1.128499999999999392, 8.000000000000000000 ) ) ;
#265 = ORIENTED_EDGE ( 'NONE', *, *, #187, .T. ) ;
#266 = VERTEX_POINT ( 'NONE', #66 ) ;
#267 = DIRECTION ( 'NONE',  ( 4.275831445896958607E-31, 1.000000000000000000, 1.224646799147353207E-16 ) ) ;
#268 = EDGE_LOOP ( 'NONE', ( #285 ) ) ;
#269 = ORIENTED_EDGE ( 'NONE', *, *, #10, .T. ) ;
#270 = CARTESIAN_POINT ( 'NONE',  ( 6.284666409917640040E-14, 0.9749999999999979794, 18.00000000000000000 ) ) ;
#271 = EDGE_LOOP ( 'NONE', ( #214 ) ) ;
#272 = CARTESIAN_POINT ( 'NONE',  ( 0.0000000000000000000, 0.0000000000000000000, 0.0000000000000000000 ) ) ;
#273 = ORIENTED_EDGE ( 'NONE', *, *, #99, .T. ) ;
#274 = COORDINATED_UNIVERSAL_TIME_OFFSET ( 1, 0, .AHEAD. ) ;
#275 = AXIS2_PLACEMENT_3D ( 'NONE', #33, #11, #196 ) ;
#276 = PERSON_AND_ORGANIZATION ( #150, #90 ) ;
#277 = APPROVAL ( #182, 'UNSPECIFIED' ) ;
#278 = ORIENTED_EDGE ( 'NONE', *, *, #209, .F. ) ;
#279 = APPLICATION_PROTOCOL_DEFINITION ( 'international standard', 'config_control_design', 1994, #193 ) ;
#280 = AXIS2_PLACEMENT_3D ( 'NONE', #260, #61, #125 ) ;
#281 = ORIENTED_EDGE ( 'NONE', *, *, #55, .T. ) ;
#282 = ADVANCED_FACE ( 'NONE', ( #40, #176 ), #153, .T. ) ;
#283 = UNCERTAINTY_MEASURE_WITH_UNIT (LENGTH_MEASURE( 1.000000000000000082E-05 ), #243, 'distance_accuracy_value', 'NONE');
#284 = ORIENTED_EDGE ( 'NONE', *, *, #261, .F. ) ;
#285 = ORIENTED_EDGE ( 'NONE', *, *, #261, .T. ) ;
#286 = EDGE_LOOP ( 'NONE', ( #281 ) ) ;
#287 = CARTESIAN_POINT ( 'NONE',  ( 6.284666409917640040E-14, -2.204364238465235428E-15, 18.00000000000000000 ) ) ;
#288 = APPROVAL_PERSON_ORGANIZATION ( #3, #165, #228 ) ;
#289 = EDGE_CURVE ( 'NONE', #266, #266, #16, .T. ) ;
#290 = DIRECTION ( 'NONE',  ( -3.491481338843133355E-15, 1.224646799147353207E-16, -1.000000000000000000 ) ) ;
#291 = CARTESIAN_POINT ( 'NONE',  ( 1.735266225405037467E-13, 1.499999999999995559, 49.70000000000000284 ) ) ;
#292 = VERTEX_POINT ( 'NONE', #34 ) ;
#293 = AXIS2_PLACEMENT_3D ( 'NONE', #272, #157, #129 ) ;
#294 = EDGE_CURVE ( 'NONE', #89, #89, #189, .T. ) ;
#295 = FACE_OUTER_BOUND ( 'NONE', #218, .T. ) ;
#296 = VERTEX_POINT ( 'NONE', #270 ) ;
#297 = CARTESIAN_POINT ( 'NONE',  ( 2.793185071074506684E-14, 1.128499999999999392, 8.000000000000000000 ) ) ;
#298 = PRODUCT_RELATED_PRODUCT_CATEGORY ( 'detail', '', ( #128 ) ) ;
#299 = AXIS2_PLACEMENT_3D ( 'NONE', #127, #106, #131 ) ;
#300 = DATE_AND_TIME ( #119, #205 ) ;
#301 = PERSON_AND_ORGANIZATION ( #150, #90 ) ;
#302 = PERSON_AND_ORGANIZATION_ROLE ( 'classification_officer' ) ;
#303 = ADVANCED_FACE ( 'NONE', ( #295, #14 ), #226, .F. ) ;
ENDSEC;
END-ISO-10303-21;
