ISO-10303-21;
HEADER;
FILE_DESCRIPTION (( 'STEP AP203' ),
    '1' );
FILE_NAME ('200118.step',
    '2021-11-30T09:01:39',
    ( '' ),
    ( '' ),
    'SwSTEP 2.0',
    'SolidWorks 2019',
    '' );
FILE_SCHEMA (( 'CONFIG_CONTROL_DESIGN' ));
ENDSEC;

DATA;
#1 = FACE_OUTER_BOUND ( 'NONE', #151, .T. ) ;
#2 = CIRCLE ( 'NONE', #100, 1.278499999999999970 ) ;
#3 = LOCAL_TIME ( 10, 1, 39.00000000000000000, #109 ) ;
#4 = PLANE ( 'NONE',  #12 ) ;
#5 = DIRECTION ( 'NONE',  ( 0.0000000000000000000, 1.000000000000000000, 0.0000000000000000000 ) ) ;
#6 = VERTEX_POINT ( 'NONE', #291 ) ;
#7 = AXIS2_PLACEMENT_3D ( 'NONE', #83, #264, #128 ) ;
#8 = FACE_OUTER_BOUND ( 'NONE', #136, .T. ) ;
#9 = CARTESIAN_POINT ( 'NONE',  ( 0.0000000000000000000, 0.0000000000000000000, 0.0000000000000000000 ) ) ;
#10 = VERTEX_POINT ( 'NONE', #107 ) ;
#11 = DIRECTION ( 'NONE',  ( 4.275831445896958607E-31, 1.000000000000000000, 1.224646799147353454E-16 ) ) ;
#12 = AXIS2_PLACEMENT_3D ( 'NONE', #299, #95, #207 ) ;
#13 = PERSON_AND_ORGANIZATION_ROLE ( 'creator' ) ;
#14 = PERSON_AND_ORGANIZATION ( #240, #238 ) ;
#15 = APPROVAL_ROLE ( '' ) ;
#16 = CLOSED_SHELL ( 'NONE', ( #134, #197, #171, #71, #243, #87, #68, #295 ) ) ;
#17 = EDGE_LOOP ( 'NONE', ( #112 ) ) ;
#18 = COORDINATED_UNIVERSAL_TIME_OFFSET ( 1, 0, .AHEAD. ) ;
#19 = ORIENTED_EDGE ( 'NONE', *, *, #81, .F. ) ;
#20 = DIRECTION ( 'NONE',  ( -3.491481338843133355E-15, 1.224646799147353454E-16, -1.000000000000000000 ) ) ;
#21 = DIRECTION ( 'NONE',  ( 4.275831445896959482E-31, 1.000000000000000000, 1.224646799147353454E-16 ) ) ;
#22 = AXIS2_PLACEMENT_3D ( 'NONE', #116, #301, #115 ) ;
#23 = FACE_OUTER_BOUND ( 'NONE', #150, .T. ) ;
#24 = ADVANCED_FACE ( 'NONE', ( #126, #220 ), #218, .T. ) ;
#25 = DIRECTION ( 'NONE',  ( 0.0000000000000000000, 1.000000000000000000, 0.0000000000000000000 ) ) ;
#26 = DIRECTION ( 'NONE',  ( 0.0000000000000000000, 1.000000000000000000, 0.0000000000000000000 ) ) ;
#27 = AXIS2_PLACEMENT_3D ( 'NONE', #9, #129, #11 ) ;
#28 = CARTESIAN_POINT ( 'NONE',  ( 2.129803616694311221E-13, 1.199999999999993960, 61.00000000000000000 ) ) ;
#29 = CC_DESIGN_DATE_AND_TIME_ASSIGNMENT ( #199, #203, ( #278 ) ) ;
#30 = EDGE_CURVE ( 'NONE', #56, #56, #296, .T. ) ;
#31 = DIRECTION ( 'NONE',  ( -3.491481338843133355E-15, 1.224646799147353454E-16, -1.000000000000000000 ) ) ;
#32 = AXIS2_PLACEMENT_3D ( 'NONE', #185, #231, #26 ) ;
#33 = APPROVAL_PERSON_ORGANIZATION ( #90, #51, #298 ) ;
#34 = EDGE_LOOP ( 'NONE', ( #94 ) ) ;
#35 = CARTESIAN_POINT ( 'NONE',  ( 3.491481338843133355E-14, 1.278499999999998638, 10.00000000000000000 ) ) ;
#36 = PERSON_AND_ORGANIZATION ( #240, #238 ) ;
#37 = CIRCLE ( 'NONE', #277, 1.134162432702594536 ) ;
#38 = DIRECTION ( 'NONE',  ( 1.000000000000000000, 0.0000000000000000000, 0.0000000000000000000 ) ) ;
#39 = APPROVAL_PERSON_ORGANIZATION ( #36, #54, #15 ) ;
#40 = APPROVAL_ROLE ( '' ) ;
#41 = DATE_AND_TIME ( #110, #249 ) ;
#42 = EDGE_LOOP ( 'NONE', ( #139 ) ) ;
#43 = DATE_AND_TIME ( #223, #259 ) ;
#44 = AXIS2_PLACEMENT_3D ( 'NONE', #146, #20, #21 ) ;
#45 = EDGE_LOOP ( 'NONE', ( #105 ) ) ;
#46 = EDGE_LOOP ( 'NONE', ( #293 ) ) ;
#47 = UNCERTAINTY_MEASURE_WITH_UNIT (LENGTH_MEASURE( 1.000000000000000082E-05 ), #148, 'distance_accuracy_value', 'NONE');
#48 = FACE_OUTER_BOUND ( 'NONE', #216, .T. ) ;
#49 = DIRECTION ( 'NONE',  ( -4.275831445896959482E-31, -1.000000000000000000, -1.224646799147353454E-16 ) ) ;
#50 = CIRCLE ( 'NONE', #163, 1.105384493975581250 ) ;
#51 = APPROVAL ( #226, 'UNSPECIFIED' ) ;
#52 = FACE_BOUND ( 'NONE', #91, .T. ) ;
#53 = DIRECTION ( 'NONE',  ( 4.519194237905134005E-31, 1.000000000000000000, 1.272040092865278385E-16 ) ) ;
#54 = APPROVAL ( #152, 'UNSPECIFIED' ) ;
#55 = EDGE_CURVE ( 'NONE', #219, #219, #37, .T. ) ;
#56 = VERTEX_POINT ( 'NONE', #35 ) ;
#57 = FACE_BOUND ( 'NONE', #275, .T. ) ;
#58 = CARTESIAN_POINT ( 'NONE',  ( 3.491481338843133355E-14, 1.278499999999998638, 10.00000000000000000 ) ) ;
#59 = VERTEX_POINT ( 'NONE', #80 ) ;
#60 = TOROIDAL_SURFACE ( 'NONE', #44, 3.075000000000000622, 2.000000000000000000 ) ;
#61 = FACE_OUTER_BOUND ( 'NONE', #245, .T. ) ;
#62 = EDGE_LOOP ( 'NONE', ( #106 ) ) ;
#63 = CALENDAR_DATE ( 2021, 30, 11 ) ;
#64 = CC_DESIGN_PERSON_AND_ORGANIZATION_ASSIGNMENT ( #248, #113, ( #278 ) ) ;
#65 = CIRCLE ( 'NONE', #176, 1.075000000000000178 ) ;
#66 = SECURITY_CLASSIFICATION_LEVEL ( 'unclassified' ) ;
#67 = APPROVAL_DATE_TIME ( #198, #255 ) ;
#68 = ADVANCED_FACE ( 'NONE', ( #162, #256 ), #228, .T. ) ;
#69 = AXIS2_PLACEMENT_3D ( 'NONE', #258, #166, #164 ) ;
#70 = ORIENTED_EDGE ( 'NONE', *, *, #55, .F. ) ;
#71 = ADVANCED_FACE ( 'NONE', ( #140, #72 ), #60, .F. ) ;
#72 = FACE_OUTER_BOUND ( 'NONE', #114, .T. ) ;
#73 = CARTESIAN_POINT ( 'NONE',  ( -8.634959047271069497E-31, 3.028735923736267183E-32, -2.473150565407912343E-16 ) ) ;
#74 = DIRECTION ( 'NONE',  ( -3.491481338843133355E-15, 1.224646799147353454E-16, -1.000000000000000000 ) ) ;
#75 = AXIS2_PLACEMENT_3D ( 'NONE', #97, #303, #49 ) ;
#76 = CARTESIAN_POINT ( 'NONE',  ( 2.129803616694311221E-13, -7.470345474798856659E-15, 61.00000000000000000 ) ) ;
#77 = DIRECTION ( 'NONE',  ( 4.275831445896959482E-31, 1.000000000000000000, 1.224646799147353700E-16 ) ) ;
#78 = AXIS2_PLACEMENT_3D ( 'NONE', #101, #74, #280 ) ;
#79 = CARTESIAN_POINT ( 'NONE',  ( 6.982962677686266711E-14, -2.449293598294706907E-15, 20.00000000000000000 ) ) ;
#80 = CARTESIAN_POINT ( 'NONE',  ( 6.982962677686266711E-14, 1.074999999999997735, 20.00000000000000000 ) ) ;
#81 = EDGE_CURVE ( 'NONE', #214, #214, #99, .T. ) ;
#82 = EDGE_LOOP ( 'NONE', ( #204 ) ) ;
#83 = CARTESIAN_POINT ( 'NONE',  ( 7.885605607120418317E-14, -2.765898118561394778E-15, 22.58527210038943522 ) ) ;
#84 = AXIS2_PLACEMENT_3D ( 'NONE', #282, #233, #25 ) ;
#85 = CARTESIAN_POINT ( 'NONE',  ( 7.104220552055900573E-14, 1.105384493975578808, 20.34729635533384240 ) ) ;
#86 = MANIFOLD_SOLID_BREP ( 'Corps-Déplacer/Copier1[2]', #211 ) ;
#87 = ADVANCED_FACE ( 'NONE', ( #1, #48 ), #281, .T. ) ;
#88 = PERSON_AND_ORGANIZATION_ROLE ( 'design_owner' ) ;
#89 = APPROVAL_DATE_TIME ( #294, #54 ) ;
#90 = PERSON_AND_ORGANIZATION ( #240, #238 ) ;
#91 = EDGE_LOOP ( 'NONE', ( #70 ) ) ;
#92 = ADVANCED_FACE ( 'NONE', ( #161 ), #4, .F. ) ;
#93 = PERSON_AND_ORGANIZATION_ROLE ( 'design_supplier' ) ;
#94 = ORIENTED_EDGE ( 'NONE', *, *, #253, .F. ) ;
#95 = DIRECTION ( 'NONE',  ( 3.491481338843133355E-15, -1.224646799147353454E-16, 1.000000000000000000 ) ) ;
#96 = FACE_OUTER_BOUND ( 'NONE', #170, .T. ) ;
#97 = CARTESIAN_POINT ( 'NONE',  ( 3.491481338843133355E-14, 9.587214410665907981E-33, 10.00000000000000000 ) ) ;
#98 = CARTESIAN_POINT ( 'NONE',  ( 8.728703347107827472E-16, -3.061616997868381785E-17, 0.2499999999999998335 ) ) ;
#99 = CIRCLE ( 'NONE', #84, 1.499999999999995559 ) ;
#100 = AXIS2_PLACEMENT_3D ( 'NONE', #104, #287, #246 ) ;
#101 = CARTESIAN_POINT ( 'NONE',  ( 2.129803616694311221E-13, -7.470345474798856659E-15, 61.00000000000000000 ) ) ;
#102 = APPLICATION_PROTOCOL_DEFINITION ( 'international standard', 'config_control_design', 1994, #224 ) ;
#103 = DIRECTION ( 'NONE',  ( 0.0000000000000000000, 1.000000000000000000, 0.0000000000000000000 ) ) ;
#104 = CARTESIAN_POINT ( 'NONE',  ( 3.491481338843133355E-14, -1.224646799147353454E-15, 10.00000000000000000 ) ) ;
#105 = ORIENTED_EDGE ( 'NONE', *, *, #108, .T. ) ;
#106 = ORIENTED_EDGE ( 'NONE', *, *, #108, .F. ) ;
#107 = CARTESIAN_POINT ( 'NONE',  ( 2.119329172677781757E-13, 1.499999999999994005, 60.69999999999999574 ) ) ;
#108 = EDGE_CURVE ( 'NONE', #149, #149, #263, .T. ) ;
#109 = COORDINATED_UNIVERSAL_TIME_OFFSET ( 1, 0, .AHEAD. ) ;
#110 = CALENDAR_DATE ( 2021, 30, 11 ) ;
#111 = DATE_TIME_ROLE ( 'creation_date' ) ;
#112 = ORIENTED_EDGE ( 'NONE', *, *, #196, .F. ) ;
#113 = PERSON_AND_ORGANIZATION_ROLE ( 'classification_officer' ) ;
#114 = EDGE_LOOP ( 'NONE', ( #160 ) ) ;
#115 = DIRECTION ( 'NONE',  ( 0.0000000000000000000, 1.000000000000000000, 0.0000000000000000000 ) ) ;
#116 = CARTESIAN_POINT ( 'NONE',  ( 2.119329172677781757E-13, -7.433606070824434221E-15, 60.69999999999999574 ) ) ;
#117 = DIRECTION ( 'NONE',  ( 0.0000000000000000000, 1.000000000000000000, 0.0000000000000000000 ) ) ;
#118 = DIRECTION ( 'NONE',  ( -4.275831445896959482E-31, -1.000000000000000000, -1.224646799147353454E-16 ) ) ;
#119 = EDGE_CURVE ( 'NONE', #10, #10, #137, .T. ) ;
#120 = AXIS2_PLACEMENT_3D ( 'NONE', #76, #143, #117 ) ;
#121 =( NAMED_UNIT ( * ) SI_UNIT ( $, .STERADIAN. ) SOLID_ANGLE_UNIT ( ) );
#122 = ADVANCED_FACE ( 'NONE', ( #182 ), #279, .T. ) ;
#123 = DIRECTION ( 'NONE',  ( 4.275831445896959482E-31, 1.000000000000000000, 1.224646799147353454E-16 ) ) ;
#124 = CARTESIAN_POINT ( 'NONE',  ( 2.129803616694311221E-13, 8.998558695971049855E-33, 61.00000000000000000 ) ) ;
#125 = AXIS2_PLACEMENT_3D ( 'NONE', #205, #141, #77 ) ;
#126 = FACE_OUTER_BOUND ( 'NONE', #17, .T. ) ;
#127 = PRODUCT_RELATED_PRODUCT_CATEGORY ( 'detail', '', ( #225 ) ) ;
#128 = DIRECTION ( 'NONE',  ( 0.0000000000000000000, -1.000000000000000000, 0.0000000000000000000 ) ) ;
#129 = DIRECTION ( 'NONE',  ( -3.491481338843133355E-15, 1.224646799147353454E-16, -1.000000000000000000 ) ) ;
#130 = COORDINATED_UNIVERSAL_TIME_OFFSET ( 1, 0, .AHEAD. ) ;
#131 = AXIS2_PLACEMENT_3D ( 'NONE', #236, #261, #210 ) ;
#132 = CC_DESIGN_SECURITY_CLASSIFICATION ( #278, ( #265 ) ) ;
#133 = COORDINATED_UNIVERSAL_TIME_OFFSET ( 1, 0, .AHEAD. ) ;
#134 = ADVANCED_FACE ( 'NONE', ( #96 ), #183, .F. ) ;
#135 = PERSON_AND_ORGANIZATION ( #240, #238 ) ;
#136 = EDGE_LOOP ( 'NONE', ( #192 ) ) ;
#137 = CIRCLE ( 'NONE', #22, 1.500000000000001332 ) ;
#138 = PERSON_AND_ORGANIZATION ( #240, #238 ) ;
#139 = ORIENTED_EDGE ( 'NONE', *, *, #283, .T. ) ;
#140 = FACE_OUTER_BOUND ( 'NONE', #34, .T. ) ;
#141 = DIRECTION ( 'NONE',  ( -3.491481338843133355E-15, 1.224646799147353454E-16, -1.000000000000000000 ) ) ;
#142 = CONICAL_SURFACE ( 'NONE', #7, 1.499999999999995559, 0.1745329251994260922 ) ;
#143 = DIRECTION ( 'NONE',  ( -3.491481338843133355E-15, 1.224646799147353454E-16, -1.000000000000000000 ) ) ;
#144 = AXIS2_PLACEMENT_3D ( 'NONE', #124, #31, #123 ) ;
#145 = FACE_OUTER_BOUND ( 'NONE', #46, .T. ) ;
#146 = CARTESIAN_POINT ( 'NONE',  ( 6.982962677686266711E-14, -2.602085213965210642E-15, 20.00000000000000000 ) ) ;
#147 = LOCAL_TIME ( 10, 1, 39.00000000000000000, #271 ) ;
#148 =( LENGTH_UNIT ( ) NAMED_UNIT ( * ) SI_UNIT ( .MILLI., .METRE. ) );
#149 = VERTEX_POINT ( 'NONE', #167 ) ;
#150 = EDGE_LOOP ( 'NONE', ( #227 ) ) ;
#151 = EDGE_LOOP ( 'NONE', ( #19 ) ) ;
#152 = APPROVAL_STATUS ( 'not_yet_approved' ) ;
#153 = ORIENTED_EDGE ( 'NONE', *, *, #119, .T. ) ;
#154 = DIRECTION ( 'NONE',  ( 0.0000000000000000000, 0.0000000000000000000, 1.000000000000000000 ) ) ;
#155 = EDGE_CURVE ( 'NONE', #194, #194, #251, .T. ) ;
#156 = CONICAL_SURFACE ( 'NONE', #189, 1.074999999999998845, 0.5235987755982937086 ) ;
#157 = APPROVAL_DATE_TIME ( #43, #51 ) ;
#158 = CC_DESIGN_PERSON_AND_ORGANIZATION_ASSIGNMENT ( #14, #13, ( #217 ) ) ;
#159 = SHAPE_DEFINITION_REPRESENTATION ( #175, #180 ) ;
#160 = ORIENTED_EDGE ( 'NONE', *, *, #257, .T. ) ;
#161 = FACE_OUTER_BOUND ( 'NONE', #82, .T. ) ;
#162 = FACE_OUTER_BOUND ( 'NONE', #202, .T. ) ;
#163 = AXIS2_PLACEMENT_3D ( 'NONE', #215, #169, #172 ) ;
#164 = DIRECTION ( 'NONE',  ( 0.0000000000000000000, 1.000000000000000000, 0.0000000000000000000 ) ) ;
#165 = DIRECTION ( 'NONE',  ( -3.491481338843133355E-15, 1.224646799147353454E-16, -1.000000000000000000 ) ) ;
#166 = DIRECTION ( 'NONE',  ( -3.491481338843133355E-15, 1.224646799147353454E-16, -1.000000000000000000 ) ) ;
#167 = CARTESIAN_POINT ( 'NONE',  ( 3.614546398369628223E-14, 1.074999999999997513, 10.35247233934027200 ) ) ;
#168 = FACE_OUTER_BOUND ( 'NONE', #297, .T. ) ;
#169 = DIRECTION ( 'NONE',  ( -3.491481338843133355E-15, 1.224646799147353454E-16, -1.000000000000000000 ) ) ;
#170 = EDGE_LOOP ( 'NONE', ( #179 ) ) ;
#171 = ADVANCED_FACE ( 'NONE', ( #235, #23 ), #212, .T. ) ;
#172 = DIRECTION ( 'NONE',  ( 0.0000000000000000000, 1.000000000000000000, 0.0000000000000000000 ) ) ;
#173 = ADVANCED_FACE ( 'NONE', ( #52, #145 ), #222, .T. ) ;
#174 = PERSON_AND_ORGANIZATION ( #240, #238 ) ;
#175 = PRODUCT_DEFINITION_SHAPE ( 'NONE', 'NONE',  #217 ) ;
#176 = AXIS2_PLACEMENT_3D ( 'NONE', #79, #191, #5 ) ;
#177 =( GEOMETRIC_REPRESENTATION_CONTEXT ( 3 ) GLOBAL_UNCERTAINTY_ASSIGNED_CONTEXT ( ( #47 ) ) GLOBAL_UNIT_ASSIGNED_CONTEXT ( ( #148, #268, #121 ) ) REPRESENTATION_CONTEXT ( 'NONE', 'WORKASPACE' ) );
#178 = APPLICATION_PROTOCOL_DEFINITION ( 'international standard', 'config_control_design', 1994, #302 ) ;
#179 = ORIENTED_EDGE ( 'NONE', *, *, #30, .T. ) ;
#180 = ADVANCED_BREP_SHAPE_REPRESENTATION ( '200118', ( #187, #86, #252 ), #177 ) ;
#181 = AXIS2_PLACEMENT_3D ( 'NONE', #186, #260, #118 ) ;
#182 = FACE_OUTER_BOUND ( 'NONE', #193, .T. ) ;
#183 = PLANE ( 'NONE',  #181 ) ;
#184 = DIRECTION ( 'NONE',  ( -3.491481338843133355E-15, 1.224646799147353454E-16, -1.000000000000000000 ) ) ;
#185 = CARTESIAN_POINT ( 'NONE',  ( 3.614546398369628223E-14, -1.267812211363457902E-15, 10.35247233934027200 ) ) ;
#186 = CARTESIAN_POINT ( 'NONE',  ( 3.491481338843133355E-14, 9.587214410665907981E-33, 10.00000000000000000 ) ) ;
#187 = MANIFOLD_SOLID_BREP ( 'Corps-Déplacer/Copier1[1]', #16 ) ;
#188 = CARTESIAN_POINT ( 'NONE',  ( -3.785471652766322713E-31, 1.134162432702594536, -1.084202172485504187E-16 ) ) ;
#189 = AXIS2_PLACEMENT_3D ( 'NONE', #239, #289, #103 ) ;
#190 = CC_DESIGN_APPROVAL ( #54, ( #278 ) ) ;
#191 = DIRECTION ( 'NONE',  ( -3.491481338843133355E-15, 1.224646799147353454E-16, -1.000000000000000000 ) ) ;
#192 = ORIENTED_EDGE ( 'NONE', *, *, #81, .T. ) ;
#193 = EDGE_LOOP ( 'NONE', ( #276 ) ) ;
#194 = VERTEX_POINT ( 'NONE', #28 ) ;
#195 = ORIENTED_EDGE ( 'NONE', *, *, #119, .F. ) ;
#196 = EDGE_CURVE ( 'NONE', #6, #6, #300, .T. ) ;
#197 = ADVANCED_FACE ( 'NONE', ( #61, #269 ), #156, .T. ) ;
#198 = DATE_AND_TIME ( #273, #3 ) ;
#199 = DATE_AND_TIME ( #63, #147 ) ;
#200 = CC_DESIGN_APPROVAL ( #51, ( #217 ) ) ;
#201 = PERSON_AND_ORGANIZATION_ROLE ( 'creator' ) ;
#202 = EDGE_LOOP ( 'NONE', ( #195 ) ) ;
#203 = DATE_TIME_ROLE ( 'classification_date' ) ;
#204 = ORIENTED_EDGE ( 'NONE', *, *, #55, .T. ) ;
#205 = CARTESIAN_POINT ( 'NONE',  ( 0.0000000000000000000, 0.0000000000000000000, 0.0000000000000000000 ) ) ;
#206 = APPROVAL_PERSON_ORGANIZATION ( #174, #255, #40 ) ;
#207 = DIRECTION ( 'NONE',  ( -4.275831445896959482E-31, -1.000000000000000000, -1.224646799147353454E-16 ) ) ;
#208 = CC_DESIGN_PERSON_AND_ORGANIZATION_ASSIGNMENT ( #135, #201, ( #265 ) ) ;
#209 = CARTESIAN_POINT ( 'NONE',  ( 0.0000000000000000000, 0.0000000000000000000, 0.0000000000000000000 ) ) ;
#210 = DIRECTION ( 'NONE',  ( -4.519194237905134005E-31, -1.000000000000000000, -1.272040092865278385E-16 ) ) ;
#211 = CLOSED_SHELL ( 'NONE', ( #92, #173, #24, #122 ) ) ;
#212 = CYLINDRICAL_SURFACE ( 'NONE', #292, 1.074999999999999512 ) ;
#213 = VERTEX_POINT ( 'NONE', #85 ) ;
#214 = VERTEX_POINT ( 'NONE', #285 ) ;
#215 = CARTESIAN_POINT ( 'NONE',  ( 7.104220552055900573E-14, -2.491825135286219831E-15, 20.34729635533384240 ) ) ;
#216 = EDGE_LOOP ( 'NONE', ( #153 ) ) ;
#217 = PRODUCT_DEFINITION ( 'UNKNOWN', '', #265, #232 ) ;
#218 = CYLINDRICAL_SURFACE ( 'NONE', #27, 1.278499999999999304 ) ;
#219 = VERTEX_POINT ( 'NONE', #188 ) ;
#220 = FACE_OUTER_BOUND ( 'NONE', #42, .T. ) ;
#221 = CALENDAR_DATE ( 2021, 30, 11 ) ;
#222 = CONICAL_SURFACE ( 'NONE', #131, 1.278499999999998638, 0.5235987755982918213 ) ;
#223 = CALENDAR_DATE ( 2021, 30, 11 ) ;
#224 = APPLICATION_CONTEXT ( 'configuration controlled 3d designs of mechanical parts and assemblies' ) ;
#225 = PRODUCT ( '200118', '200118', '', ( #250 ) ) ;
#226 = APPROVAL_STATUS ( 'not_yet_approved' ) ;
#227 = ORIENTED_EDGE ( 'NONE', *, *, #253, .T. ) ;
#228 = CONICAL_SURFACE ( 'NONE', #78, 1.200000000000001510, 0.7853981633974453924 ) ;
#229 = CC_DESIGN_APPROVAL ( #255, ( #265 ) ) ;
#230 = ORIENTED_EDGE ( 'NONE', *, *, #155, .F. ) ;
#231 = DIRECTION ( 'NONE',  ( -3.491481338843133355E-15, 1.224646799147353454E-16, -1.000000000000000000 ) ) ;
#232 = DESIGN_CONTEXT ( 'detailed design', #302, 'design' ) ;
#233 = DIRECTION ( 'NONE',  ( -3.491481338843133355E-15, 1.224646799147353454E-16, -1.000000000000000000 ) ) ;
#234 = AXIS2_PLACEMENT_3D ( 'NONE', #98, #165, #53 ) ;
#235 = FACE_OUTER_BOUND ( 'NONE', #62, .T. ) ;
#236 = CARTESIAN_POINT ( 'NONE',  ( 8.728703347107827472E-16, -3.061616997868381785E-17, 0.2499999999999998335 ) ) ;
#237 = DIRECTION ( 'NONE',  ( -3.491481338843133355E-15, 1.224646799147353454E-16, -1.000000000000000000 ) ) ;
#238 = ORGANIZATION ( 'UNSPECIFIED', 'UNSPECIFIED', '' ) ;
#239 = CARTESIAN_POINT ( 'NONE',  ( 3.614546398369628223E-14, -1.267812211363457902E-15, 10.35247233934027200 ) ) ;
#240 = PERSON ( 'UNSPECIFIED', 'UNSPECIFIED', 'UNSPECIFIED', ('UNSPECIFIED'), ('UNSPECIFIED'), ('UNSPECIFIED') ) ;
#241 = VERTEX_POINT ( 'NONE', #58 ) ;
#242 = CC_DESIGN_PERSON_AND_ORGANIZATION_ASSIGNMENT ( #272, #93, ( #265 ) ) ;
#243 = ADVANCED_FACE ( 'NONE', ( #57, #8 ), #142, .T. ) ;
#244 = LOCAL_TIME ( 10, 1, 39.00000000000000000, #130 ) ;
#245 = EDGE_LOOP ( 'NONE', ( #270 ) ) ;
#246 = DIRECTION ( 'NONE',  ( 0.0000000000000000000, 1.000000000000000000, 0.0000000000000000000 ) ) ;
#247 = ORIENTED_EDGE ( 'NONE', *, *, #257, .F. ) ;
#248 = PERSON_AND_ORGANIZATION ( #240, #238 ) ;
#249 = LOCAL_TIME ( 10, 1, 39.00000000000000000, #18 ) ;
#250 = MECHANICAL_CONTEXT ( 'NONE', #224, 'mechanical' ) ;
#251 = CIRCLE ( 'NONE', #120, 1.200000000000001510 ) ;
#252 = AXIS2_PLACEMENT_3D ( 'NONE', #286, #154, #38 ) ;
#253 = EDGE_CURVE ( 'NONE', #59, #59, #65, .T. ) ;
#254 = ORIENTED_EDGE ( 'NONE', *, *, #155, .T. ) ;
#255 = APPROVAL ( #274, 'UNSPECIFIED' ) ;
#256 = FACE_BOUND ( 'NONE', #288, .T. ) ;
#257 = EDGE_CURVE ( 'NONE', #213, #213, #50, .T. ) ;
#258 = CARTESIAN_POINT ( 'NONE',  ( 3.491481338843133355E-14, -1.224646799147353454E-15, 10.00000000000000000 ) ) ;
#259 = LOCAL_TIME ( 10, 1, 39.00000000000000000, #133 ) ;
#260 = DIRECTION ( 'NONE',  ( 3.491481338843133355E-15, -1.224646799147353454E-16, 1.000000000000000000 ) ) ;
#261 = DIRECTION ( 'NONE',  ( 3.491481338843133355E-15, -1.224646799147353454E-16, 1.000000000000000000 ) ) ;
#262 = DIRECTION ( 'NONE',  ( 4.275831445896958607E-31, 1.000000000000000000, 1.224646799147353207E-16 ) ) ;
#263 = CIRCLE ( 'NONE', #32, 1.074999999999998845 ) ;
#264 = DIRECTION ( 'NONE',  ( 3.491481338843133355E-15, -1.224646799147353454E-16, 1.000000000000000000 ) ) ;
#265 = PRODUCT_DEFINITION_FORMATION_WITH_SPECIFIED_SOURCE ( 'ANY', '', #225, .NOT_KNOWN. ) ;
#266 = PLANE ( 'NONE',  #144 ) ;
#267 = CC_DESIGN_PERSON_AND_ORGANIZATION_ASSIGNMENT ( #138, #88, ( #225 ) ) ;
#268 =( NAMED_UNIT ( * ) PLANE_ANGLE_UNIT ( ) SI_UNIT ( $, .RADIAN. ) );
#269 = FACE_BOUND ( 'NONE', #45, .T. ) ;
#270 = ORIENTED_EDGE ( 'NONE', *, *, #30, .F. ) ;
#271 = COORDINATED_UNIVERSAL_TIME_OFFSET ( 1, 0, .AHEAD. ) ;
#272 = PERSON_AND_ORGANIZATION ( #240, #238 ) ;
#273 = CALENDAR_DATE ( 2021, 30, 11 ) ;
#274 = APPROVAL_STATUS ( 'not_yet_approved' ) ;
#275 = EDGE_LOOP ( 'NONE', ( #247 ) ) ;
#276 = ORIENTED_EDGE ( 'NONE', *, *, #283, .F. ) ;
#277 = AXIS2_PLACEMENT_3D ( 'NONE', #73, #237, #262 ) ;
#278 = SECURITY_CLASSIFICATION ( '', '', #66 ) ;
#279 = PLANE ( 'NONE',  #75 ) ;
#280 = DIRECTION ( 'NONE',  ( 0.0000000000000000000, 1.000000000000000000, 0.0000000000000000000 ) ) ;
#281 = CYLINDRICAL_SURFACE ( 'NONE', #125, 1.499999999999998224 ) ;
#282 = CARTESIAN_POINT ( 'NONE',  ( 7.885605607120418317E-14, -2.765898118561394778E-15, 22.58527210038943522 ) ) ;
#283 = EDGE_CURVE ( 'NONE', #241, #241, #2, .T. ) ;
#284 = DIRECTION ( 'NONE',  ( 4.275831445896960358E-31, 1.000000000000000000, 1.224646799147353454E-16 ) ) ;
#285 = CARTESIAN_POINT ( 'NONE',  ( 7.885605607120418317E-14, 1.499999999999992673, 22.58527210038943522 ) ) ;
#286 = CARTESIAN_POINT ( 'NONE',  ( 0.0000000000000000000, 0.0000000000000000000, 0.0000000000000000000 ) ) ;
#287 = DIRECTION ( 'NONE',  ( -3.491481338843133355E-15, 1.224646799147353454E-16, -1.000000000000000000 ) ) ;
#288 = EDGE_LOOP ( 'NONE', ( #254 ) ) ;
#289 = DIRECTION ( 'NONE',  ( -3.491481338843133355E-15, 1.224646799147353454E-16, -1.000000000000000000 ) ) ;
#290 = CC_DESIGN_DATE_AND_TIME_ASSIGNMENT ( #41, #111, ( #217 ) ) ;
#291 = CARTESIAN_POINT ( 'NONE',  ( 8.728703347107833388E-16, 1.278499999999998638, 0.2500000000000000000 ) ) ;
#292 = AXIS2_PLACEMENT_3D ( 'NONE', #209, #184, #284 ) ;
#293 = ORIENTED_EDGE ( 'NONE', *, *, #196, .T. ) ;
#294 = DATE_AND_TIME ( #221, #244 ) ;
#295 = ADVANCED_FACE ( 'NONE', ( #168 ), #266, .F. ) ;
#296 = CIRCLE ( 'NONE', #69, 1.278499999999999970 ) ;
#297 = EDGE_LOOP ( 'NONE', ( #230 ) ) ;
#298 = APPROVAL_ROLE ( '' ) ;
#299 = CARTESIAN_POINT ( 'NONE',  ( -4.317479523635534749E-31, 1.514367961868133592E-32, -1.236575282703956172E-16 ) ) ;
#300 = CIRCLE ( 'NONE', #234, 1.278499999999998638 ) ;
#301 = DIRECTION ( 'NONE',  ( -3.491481338843133355E-15, 1.224646799147353454E-16, -1.000000000000000000 ) ) ;
#302 = APPLICATION_CONTEXT ( 'configuration controlled 3d designs of mechanical parts and assemblies' ) ;
#303 = DIRECTION ( 'NONE',  ( 3.491481338843133355E-15, -1.224646799147353454E-16, 1.000000000000000000 ) ) ;
ENDSEC;
END-ISO-10303-21;
