ISO-10303-21;
HEADER;
FILE_DESCRIPTION (( 'STEP AP203' ),
    '1' );
FILE_NAME ('200117.step',
    '2021-11-30T09:01:39',
    ( '' ),
    ( '' ),
    'SwSTEP 2.0',
    'SolidWorks 2019',
    '' );
FILE_SCHEMA (( 'CONFIG_CONTROL_DESIGN' ));
ENDSEC;

DATA;
#1 = PERSON_AND_ORGANIZATION_ROLE ( 'classification_officer' ) ;
#2 = FACE_OUTER_BOUND ( 'NONE', #57, .T. ) ;
#3 = CIRCLE ( 'NONE', #39, 1.303499999999998993 ) ;
#4 = CC_DESIGN_PERSON_AND_ORGANIZATION_ASSIGNMENT ( #287, #5, ( #132 ) ) ;
#5 = PERSON_AND_ORGANIZATION_ROLE ( 'design_supplier' ) ;
#6 = DIRECTION ( 'NONE',  ( 4.432520010097209322E-31, 1.000000000000000000, 1.247643466611628692E-16 ) ) ;
#7 = DIRECTION ( 'NONE',  ( -3.491481338843133355E-15, 1.224646799147353454E-16, -1.000000000000000000 ) ) ;
#8 = DESIGN_CONTEXT ( 'detailed design', #179, 'design' ) ;
#9 = DIRECTION ( 'NONE',  ( -3.491481338843133355E-15, 1.224646799147353454E-16, -1.000000000000000000 ) ) ;
#10 = CIRCLE ( 'NONE', #35, 1.130384493975580940 ) ;
#11 = SECURITY_CLASSIFICATION ( '', '', #158 ) ;
#12 = DIRECTION ( 'NONE',  ( 0.0000000000000000000, 1.000000000000000000, 0.0000000000000000000 ) ) ;
#13 = VERTEX_POINT ( 'NONE', #292 ) ;
#14 = CARTESIAN_POINT ( 'NONE',  ( 3.491481338843133355E-14, 9.774684383498644287E-33, 10.00000000000000000 ) ) ;
#15 = CIRCLE ( 'NONE', #18, 1.500000000000001332 ) ;
#16 = PRODUCT ( '200117', '200117', '', ( #21 ) ) ;
#17 = CARTESIAN_POINT ( 'NONE',  ( 7.836102670519127414E-14, 1.499999999999992673, 22.44349005489899085 ) ) ;
#18 = AXIS2_PLACEMENT_3D ( 'NONE', #284, #147, #191 ) ;
#19 = DIRECTION ( 'NONE',  ( -3.491481338843133355E-15, 1.224646799147353454E-16, -1.000000000000000000 ) ) ;
#20 = ORIENTED_EDGE ( 'NONE', *, *, #23, .T. ) ;
#21 = MECHANICAL_CONTEXT ( 'NONE', #239, 'mechanical' ) ;
#22 = PERSON_AND_ORGANIZATION ( #123, #300 ) ;
#23 = EDGE_CURVE ( 'NONE', #13, #13, #30, .T. ) ;
#24 = CALENDAR_DATE ( 2021, 30, 11 ) ;
#25 = FACE_OUTER_BOUND ( 'NONE', #91, .T. ) ;
#26 = FACE_BOUND ( 'NONE', #155, .T. ) ;
#27 = PLANE ( 'NONE',  #250 ) ;
#28 = CYLINDRICAL_SURFACE ( 'NONE', #56, 1.499999999999998224 ) ;
#29 = DIRECTION ( 'NONE',  ( -3.491481338843133355E-15, 1.224646799147353454E-16, -1.000000000000000000 ) ) ;
#30 = CIRCLE ( 'NONE', #242, 1.303500000000000103 ) ;
#31 = CONICAL_SURFACE ( 'NONE', #277, 1.303499999999998993, 0.5235987755982920433 ) ;
#32 = DIRECTION ( 'NONE',  ( -3.491481338843133355E-15, 1.224646799147353454E-16, -1.000000000000000000 ) ) ;
#33 = CARTESIAN_POINT ( 'NONE',  ( 2.129803616694311221E-13, -7.470345474798856659E-15, 61.00000000000000000 ) ) ;
#34 = ADVANCED_FACE ( 'NONE', ( #25, #101 ), #218, .T. ) ;
#35 = AXIS2_PLACEMENT_3D ( 'NONE', #178, #32, #130 ) ;
#36 = EDGE_CURVE ( 'NONE', #156, #156, #3, .T. ) ;
#37 = PLANE ( 'NONE',  #204 ) ;
#38 = ORIENTED_EDGE ( 'NONE', *, *, #105, .F. ) ;
#39 = AXIS2_PLACEMENT_3D ( 'NONE', #288, #128, #6 ) ;
#40 = VERTEX_POINT ( 'NONE', #152 ) ;
#41 = PERSON_AND_ORGANIZATION ( #123, #300 ) ;
#42 = EDGE_LOOP ( 'NONE', ( #302 ) ) ;
#43 = PERSON_AND_ORGANIZATION_ROLE ( 'creator' ) ;
#44 = DIRECTION ( 'NONE',  ( 0.0000000000000000000, 1.000000000000000000, 0.0000000000000000000 ) ) ;
#45 = DATE_AND_TIME ( #137, #48 ) ;
#46 = CARTESIAN_POINT ( 'NONE',  ( -2.478191590326086272E-31, 8.692325990699171529E-33, -7.097822814505460207E-17 ) ) ;
#47 = DIRECTION ( 'NONE',  ( 0.0000000000000000000, 1.000000000000000000, 0.0000000000000000000 ) ) ;
#48 = LOCAL_TIME ( 10, 1, 39.00000000000000000, #187 ) ;
#49 = DIRECTION ( 'NONE',  ( 3.491481338843133355E-15, -1.224646799147353454E-16, 1.000000000000000000 ) ) ;
#50 = DIRECTION ( 'NONE',  ( 0.0000000000000000000, 1.000000000000000000, 0.0000000000000000000 ) ) ;
#51 = DIRECTION ( 'NONE',  ( -3.491481338843133355E-15, 1.224646799147353454E-16, -1.000000000000000000 ) ) ;
#52 = AXIS2_PLACEMENT_3D ( 'NONE', #59, #269, #133 ) ;
#53 = ADVANCED_FACE ( 'NONE', ( #93 ), #27, .F. ) ;
#54 = DIRECTION ( 'NONE',  ( 0.0000000000000000000, 1.000000000000000000, 0.0000000000000000000 ) ) ;
#55 = DIRECTION ( 'NONE',  ( -3.491481338843133355E-15, 1.224646799147353454E-16, -1.000000000000000000 ) ) ;
#56 = AXIS2_PLACEMENT_3D ( 'NONE', #219, #196, #241 ) ;
#57 = EDGE_LOOP ( 'NONE', ( #208 ) ) ;
#58 = EDGE_LOOP ( 'NONE', ( #120 ) ) ;
#59 = CARTESIAN_POINT ( 'NONE',  ( 3.491481338843133355E-14, 9.774684383498644287E-33, 10.00000000000000000 ) ) ;
#60 = CC_DESIGN_PERSON_AND_ORGANIZATION_ASSIGNMENT ( #260, #119, ( #132 ) ) ;
#61 = ADVANCED_FACE ( 'NONE', ( #26, #238 ), #263, .T. ) ;
#62 = DATE_AND_TIME ( #88, #110 ) ;
#63 = EDGE_LOOP ( 'NONE', ( #296 ) ) ;
#64 = APPLICATION_PROTOCOL_DEFINITION ( 'international standard', 'config_control_design', 1994, #239 ) ;
#65 = EDGE_LOOP ( 'NONE', ( #116 ) ) ;
#66 = COORDINATED_UNIVERSAL_TIME_OFFSET ( 1, 0, .AHEAD. ) ;
#67 = DIRECTION ( 'NONE',  ( 0.0000000000000000000, 1.000000000000000000, 0.0000000000000000000 ) ) ;
#68 = APPLICATION_PROTOCOL_DEFINITION ( 'international standard', 'config_control_design', 1994, #179 ) ;
#69 = DIRECTION ( 'NONE',  ( -3.491481338843133355E-15, 1.224646799147353454E-16, -1.000000000000000000 ) ) ;
#70 = SHAPE_DEFINITION_REPRESENTATION ( #83, #214 ) ;
#71 = CARTESIAN_POINT ( 'NONE',  ( 8.728703347107827472E-16, -3.061616997868381785E-17, 0.2499999999999998335 ) ) ;
#72 = ADVANCED_FACE ( 'NONE', ( #240, #264 ), #31, .T. ) ;
#73 = CYLINDRICAL_SURFACE ( 'NONE', #124, 1.303499999999999437 ) ;
#74 = AXIS2_PLACEMENT_3D ( 'NONE', #275, #149, #80 ) ;
#75 = APPROVAL_PERSON_ORGANIZATION ( #283, #249, #189 ) ;
#76 = UNCERTAINTY_MEASURE_WITH_UNIT (LENGTH_MEASURE( 1.000000000000000082E-05 ), #244, 'distance_accuracy_value', 'NONE');
#77 = CARTESIAN_POINT ( 'NONE',  ( 3.614546398369628854E-14, -1.267812211363458297E-15, 10.35247233934027378 ) ) ;
#78 = PLANE ( 'NONE',  #52 ) ;
#79 = CLOSED_SHELL ( 'NONE', ( #53, #72, #126, #256 ) ) ;
#80 = DIRECTION ( 'NONE',  ( 0.0000000000000000000, 1.000000000000000000, 0.0000000000000000000 ) ) ;
#81 = ADVANCED_FACE ( 'NONE', ( #265, #125 ), #180, .T. ) ;
#82 = VERTEX_POINT ( 'NONE', #109 ) ;
#83 = PRODUCT_DEFINITION_SHAPE ( 'NONE', 'NONE',  #107 ) ;
#84 = ADVANCED_FACE ( 'NONE', ( #164 ), #148, .F. ) ;
#85 = EDGE_LOOP ( 'NONE', ( #182 ) ) ;
#86 = CC_DESIGN_PERSON_AND_ORGANIZATION_ASSIGNMENT ( #190, #1, ( #11 ) ) ;
#87 = DIRECTION ( 'NONE',  ( -4.275831445896959482E-31, -1.000000000000000000, -1.224646799147353454E-16 ) ) ;
#88 = CALENDAR_DATE ( 2021, 30, 11 ) ;
#89 = LOCAL_TIME ( 10, 1, 39.00000000000000000, #142 ) ;
#90 = ORIENTED_EDGE ( 'NONE', *, *, #153, .F. ) ;
#91 = EDGE_LOOP ( 'NONE', ( #297 ) ) ;
#92 = PERSON_AND_ORGANIZATION ( #123, #300 ) ;
#93 = FACE_OUTER_BOUND ( 'NONE', #134, .T. ) ;
#94 = APPROVAL_DATE_TIME ( #281, #249 ) ;
#95 = AXIS2_PLACEMENT_3D ( 'NONE', #201, #51, #12 ) ;
#96 = CARTESIAN_POINT ( 'NONE',  ( 2.129803616694311221E-13, 8.998558695971049855E-33, 61.00000000000000000 ) ) ;
#97 =( GEOMETRIC_REPRESENTATION_CONTEXT ( 3 ) GLOBAL_UNCERTAINTY_ASSIGNED_CONTEXT ( ( #76 ) ) GLOBAL_UNIT_ASSIGNED_CONTEXT ( ( #244, #104, #273 ) ) REPRESENTATION_CONTEXT ( 'NONE', 'WORKASPACE' ) );
#98 = DIRECTION ( 'NONE',  ( 1.000000000000000000, 0.0000000000000000000, 0.0000000000000000000 ) ) ;
#99 = CARTESIAN_POINT ( 'NONE',  ( 0.0000000000000000000, 0.0000000000000000000, 0.0000000000000000000 ) ) ;
#100 = CC_DESIGN_PERSON_AND_ORGANIZATION_ASSIGNMENT ( #22, #43, ( #107 ) ) ;
#101 = FACE_OUTER_BOUND ( 'NONE', #58, .T. ) ;
#102 = DIRECTION ( 'NONE',  ( 4.275831445896959482E-31, 1.000000000000000000, 1.224646799147353454E-16 ) ) ;
#103 = VERTEX_POINT ( 'NONE', #17 ) ;
#104 =( NAMED_UNIT ( * ) PLANE_ANGLE_UNIT ( ) SI_UNIT ( $, .RADIAN. ) );
#105 = EDGE_CURVE ( 'NONE', #254, #254, #15, .T. ) ;
#106 = CARTESIAN_POINT ( 'NONE',  ( 8.728703347107833388E-16, 1.303499999999998993, 0.2500000000000000000 ) ) ;
#107 = PRODUCT_DEFINITION ( 'UNKNOWN', '', #132, #8 ) ;
#108 = AXIS2_PLACEMENT_3D ( 'NONE', #157, #55, #223 ) ;
#109 = CARTESIAN_POINT ( 'NONE',  ( 3.614546398369628854E-14, 1.099999999999997646, 10.35247233934027378 ) ) ;
#110 = LOCAL_TIME ( 10, 1, 39.00000000000000000, #209 ) ;
#111 = ORIENTED_EDGE ( 'NONE', *, *, #203, .T. ) ;
#112 = PRODUCT_RELATED_PRODUCT_CATEGORY ( 'detail', '', ( #16 ) ) ;
#113 = CARTESIAN_POINT ( 'NONE',  ( 0.0000000000000000000, 1.159162432702594669, 0.0000000000000000000 ) ) ;
#114 = EDGE_LOOP ( 'NONE', ( #211 ) ) ;
#115 = APPROVAL_ROLE ( '' ) ;
#116 = ORIENTED_EDGE ( 'NONE', *, *, #105, .T. ) ;
#117 = APPROVAL_STATUS ( 'not_yet_approved' ) ;
#118 = ORIENTED_EDGE ( 'NONE', *, *, #177, .T. ) ;
#119 = PERSON_AND_ORGANIZATION_ROLE ( 'creator' ) ;
#120 = ORIENTED_EDGE ( 'NONE', *, *, #153, .T. ) ;
#121 = DATE_TIME_ROLE ( 'creation_date' ) ;
#122 = DIRECTION ( 'NONE',  ( -4.275831445896959482E-31, -1.000000000000000000, -1.224646799147353454E-16 ) ) ;
#123 = PERSON ( 'UNSPECIFIED', 'UNSPECIFIED', 'UNSPECIFIED', ('UNSPECIFIED'), ('UNSPECIFIED'), ('UNSPECIFIED') ) ;
#124 = AXIS2_PLACEMENT_3D ( 'NONE', #170, #194, #259 ) ;
#125 = FACE_BOUND ( 'NONE', #114, .T. ) ;
#126 = ADVANCED_FACE ( 'NONE', ( #289, #2 ), #73, .T. ) ;
#127 = EDGE_CURVE ( 'NONE', #172, #172, #299, .T. ) ;
#128 = DIRECTION ( 'NONE',  ( -3.491481338843133355E-15, 1.224646799147353454E-16, -1.000000000000000000 ) ) ;
#129 = CARTESIAN_POINT ( 'NONE',  ( 3.491481338843133355E-14, -1.224646799147353454E-15, 10.00000000000000000 ) ) ;
#130 = DIRECTION ( 'NONE',  ( 0.0000000000000000000, 1.000000000000000000, 0.0000000000000000000 ) ) ;
#131 = AXIS2_PLACEMENT_3D ( 'NONE', #217, #171, #44 ) ;
#132 = PRODUCT_DEFINITION_FORMATION_WITH_SPECIFIED_SOURCE ( 'ANY', '', #16, .NOT_KNOWN. ) ;
#133 = DIRECTION ( 'NONE',  ( -4.275831445896959482E-31, -1.000000000000000000, -1.224646799147353454E-16 ) ) ;
#134 = EDGE_LOOP ( 'NONE', ( #118 ) ) ;
#135 = CARTESIAN_POINT ( 'NONE',  ( 3.491481338843133355E-14, 1.303499999999998993, 10.00000000000000000 ) ) ;
#136 = ORIENTED_EDGE ( 'NONE', *, *, #203, .F. ) ;
#137 = CALENDAR_DATE ( 2021, 30, 11 ) ;
#138 = EDGE_LOOP ( 'NONE', ( #38 ) ) ;
#139 = CIRCLE ( 'NONE', #210, 1.159162432702594669 ) ;
#140 = APPROVAL_STATUS ( 'not_yet_approved' ) ;
#141 = CARTESIAN_POINT ( 'NONE',  ( 7.836102670519127414E-14, -2.748534825742750835E-15, 22.44349005489899085 ) ) ;
#142 = COORDINATED_UNIVERSAL_TIME_OFFSET ( 1, 0, .AHEAD. ) ;
#143 = ADVANCED_FACE ( 'NONE', ( #200, #146 ), #28, .T. ) ;
#144 = DIRECTION ( 'NONE',  ( 0.0000000000000000000, -1.000000000000000000, 0.0000000000000000000 ) ) ;
#145 = AXIS2_PLACEMENT_3D ( 'NONE', #77, #197, #50 ) ;
#146 = FACE_OUTER_BOUND ( 'NONE', #65, .T. ) ;
#147 = DIRECTION ( 'NONE',  ( -3.491481338843133355E-15, 1.224646799147353454E-16, -1.000000000000000000 ) ) ;
#148 = PLANE ( 'NONE',  #150 ) ;
#149 = DIRECTION ( 'NONE',  ( -3.491481338843133355E-15, 1.224646799147353454E-16, -1.000000000000000000 ) ) ;
#150 = AXIS2_PLACEMENT_3D ( 'NONE', #96, #9, #102 ) ;
#151 = CARTESIAN_POINT ( 'NONE',  ( 7.104220552055901835E-14, 1.130384493975578719, 20.34729635533384595 ) ) ;
#152 = CARTESIAN_POINT ( 'NONE',  ( 6.982962677686266711E-14, 1.099999999999997646, 20.00000000000000000 ) ) ;
#153 = EDGE_CURVE ( 'NONE', #40, #40, #186, .T. ) ;
#154 = CC_DESIGN_SECURITY_CLASSIFICATION ( #11, ( #132 ) ) ;
#155 = EDGE_LOOP ( 'NONE', ( #136 ) ) ;
#156 = VERTEX_POINT ( 'NONE', #106 ) ;
#157 = CARTESIAN_POINT ( 'NONE',  ( 6.982962677686266711E-14, -2.602085213965210642E-15, 20.00000000000000000 ) ) ;
#158 = SECURITY_CLASSIFICATION_LEVEL ( 'unclassified' ) ;
#159 = EDGE_CURVE ( 'NONE', #222, #222, #243, .T. ) ;
#160 = APPROVAL_DATE_TIME ( #301, #272 ) ;
#161 = EDGE_LOOP ( 'NONE', ( #111 ) ) ;
#162 = CLOSED_SHELL ( 'NONE', ( #181, #81, #34, #253, #61, #143, #294, #84 ) ) ;
#163 = CC_DESIGN_APPROVAL ( #272, ( #107 ) ) ;
#164 = FACE_OUTER_BOUND ( 'NONE', #280, .T. ) ;
#165 = COORDINATED_UNIVERSAL_TIME_OFFSET ( 1, 0, .AHEAD. ) ;
#166 = APPROVAL ( #117, 'UNSPECIFIED' ) ;
#167 = DIRECTION ( 'NONE',  ( -3.491481338843133355E-15, 1.224646799147353454E-16, -1.000000000000000000 ) ) ;
#168 = DATE_TIME_ROLE ( 'classification_date' ) ;
#169 = DIRECTION ( 'NONE',  ( 3.491481338843133355E-15, -1.224646799147353454E-16, 1.000000000000000000 ) ) ;
#170 = CARTESIAN_POINT ( 'NONE',  ( 0.0000000000000000000, 0.0000000000000000000, 0.0000000000000000000 ) ) ;
#171 = DIRECTION ( 'NONE',  ( -3.491481338843133355E-15, 1.224646799147353454E-16, -1.000000000000000000 ) ) ;
#172 = VERTEX_POINT ( 'NONE', #135 ) ;
#173 = AXIS2_PLACEMENT_3D ( 'NONE', #99, #291, #236 ) ;
#174 = CARTESIAN_POINT ( 'NONE',  ( 2.119329172677781757E-13, 1.499999999999994005, 60.69999999999999574 ) ) ;
#175 = CONICAL_SURFACE ( 'NONE', #252, 1.200000000000001510, 0.7853981633974453924 ) ;
#176 = CC_DESIGN_APPROVAL ( #166, ( #132 ) ) ;
#177 = EDGE_CURVE ( 'NONE', #207, #207, #139, .T. ) ;
#178 = CARTESIAN_POINT ( 'NONE',  ( 7.104220552055901835E-14, -2.491825135286220620E-15, 20.34729635533384595 ) ) ;
#179 = APPLICATION_CONTEXT ( 'configuration controlled 3d designs of mechanical parts and assemblies' ) ;
#180 = CONICAL_SURFACE ( 'NONE', #145, 1.099999999999998979, 0.5235987755982920433 ) ;
#181 = ADVANCED_FACE ( 'NONE', ( #225 ), #37, .F. ) ;
#182 = ORIENTED_EDGE ( 'NONE', *, *, #159, .T. ) ;
#183 = EDGE_LOOP ( 'NONE', ( #251 ) ) ;
#184 = DIRECTION ( 'NONE',  ( 3.491481338843133355E-15, -1.224646799147353454E-16, 1.000000000000000000 ) ) ;
#185 = ORIENTED_EDGE ( 'NONE', *, *, #127, .F. ) ;
#186 = CIRCLE ( 'NONE', #131, 1.100000000000000089 ) ;
#187 = COORDINATED_UNIVERSAL_TIME_OFFSET ( 1, 0, .AHEAD. ) ;
#188 = ORIENTED_EDGE ( 'NONE', *, *, #230, .T. ) ;
#189 = APPROVAL_ROLE ( '' ) ;
#190 = PERSON_AND_ORGANIZATION ( #123, #300 ) ;
#191 = DIRECTION ( 'NONE',  ( 0.0000000000000000000, 1.000000000000000000, 0.0000000000000000000 ) ) ;
#192 = PERSON_AND_ORGANIZATION ( #123, #300 ) ;
#193 = CIRCLE ( 'NONE', #74, 1.499999999999995559 ) ;
#194 = DIRECTION ( 'NONE',  ( -3.491481338843133355E-15, 1.224646799147353454E-16, -1.000000000000000000 ) ) ;
#195 = APPROVAL_STATUS ( 'not_yet_approved' ) ;
#196 = DIRECTION ( 'NONE',  ( -3.491481338843133355E-15, 1.224646799147353454E-16, -1.000000000000000000 ) ) ;
#197 = DIRECTION ( 'NONE',  ( -3.491481338843133355E-15, 1.224646799147353454E-16, -1.000000000000000000 ) ) ;
#198 = AXIS2_PLACEMENT_3D ( 'NONE', #141, #216, #144 ) ;
#199 = CC_DESIGN_APPROVAL ( #249, ( #11 ) ) ;
#200 = FACE_OUTER_BOUND ( 'NONE', #276, .T. ) ;
#201 = CARTESIAN_POINT ( 'NONE',  ( 3.614546398369628854E-14, -1.267812211363458297E-15, 10.35247233934027378 ) ) ;
#202 = FACE_OUTER_BOUND ( 'NONE', #138, .T. ) ;
#203 = EDGE_CURVE ( 'NONE', #245, #245, #10, .T. ) ;
#204 = AXIS2_PLACEMENT_3D ( 'NONE', #14, #184, #87 ) ;
#205 = DIRECTION ( 'NONE',  ( 4.275831445896959482E-31, 1.000000000000000000, 1.224646799147353454E-16 ) ) ;
#206 = ORIENTED_EDGE ( 'NONE', *, *, #230, .F. ) ;
#207 = VERTEX_POINT ( 'NONE', #113 ) ;
#208 = ORIENTED_EDGE ( 'NONE', *, *, #127, .T. ) ;
#209 = COORDINATED_UNIVERSAL_TIME_OFFSET ( 1, 0, .AHEAD. ) ;
#210 = AXIS2_PLACEMENT_3D ( 'NONE', #286, #167, #205 ) ;
#211 = ORIENTED_EDGE ( 'NONE', *, *, #285, .T. ) ;
#212 = CC_DESIGN_DATE_AND_TIME_ASSIGNMENT ( #45, #168, ( #11 ) ) ;
#213 = ORIENTED_EDGE ( 'NONE', *, *, #36, .T. ) ;
#214 = ADVANCED_BREP_SHAPE_REPRESENTATION ( '200117', ( #274, #278, #237 ), #97 ) ;
#215 = PERSON_AND_ORGANIZATION_ROLE ( 'design_owner' ) ;
#216 = DIRECTION ( 'NONE',  ( 3.491481338843133355E-15, -1.224646799147353454E-16, 1.000000000000000000 ) ) ;
#217 = CARTESIAN_POINT ( 'NONE',  ( 6.982962677686266711E-14, -2.449293598294706907E-15, 20.00000000000000000 ) ) ;
#218 = CYLINDRICAL_SURFACE ( 'NONE', #173, 1.099999999999999423 ) ;
#219 = CARTESIAN_POINT ( 'NONE',  ( 0.0000000000000000000, 0.0000000000000000000, 0.0000000000000000000 ) ) ;
#220 = TOROIDAL_SURFACE ( 'NONE', #108, 3.100000000000000533, 2.000000000000000000 ) ;
#221 = APPROVAL_PERSON_ORGANIZATION ( #41, #166, #115 ) ;
#222 = VERTEX_POINT ( 'NONE', #226 ) ;
#223 = DIRECTION ( 'NONE',  ( 4.275831445896960358E-31, 1.000000000000000000, 1.224646799147353454E-16 ) ) ;
#224 = CC_DESIGN_DATE_AND_TIME_ASSIGNMENT ( #255, #121, ( #107 ) ) ;
#225 = FACE_OUTER_BOUND ( 'NONE', #298, .T. ) ;
#226 = CARTESIAN_POINT ( 'NONE',  ( 2.129803616694311221E-13, 1.199999999999993960, 61.00000000000000000 ) ) ;
#227 = CIRCLE ( 'NONE', #95, 1.099999999999998979 ) ;
#228 = FACE_BOUND ( 'NONE', #85, .T. ) ;
#229 = EDGE_LOOP ( 'NONE', ( #188 ) ) ;
#230 = EDGE_CURVE ( 'NONE', #103, #103, #193, .T. ) ;
#231 = APPROVAL_ROLE ( '' ) ;
#232 = CARTESIAN_POINT ( 'NONE',  ( 0.0000000000000000000, 0.0000000000000000000, 0.0000000000000000000 ) ) ;
#233 = DIRECTION ( 'NONE',  ( 0.0000000000000000000, 0.0000000000000000000, 1.000000000000000000 ) ) ;
#234 = CARTESIAN_POINT ( 'NONE',  ( 2.129803616694311221E-13, -7.470345474798856659E-15, 61.00000000000000000 ) ) ;
#235 = CALENDAR_DATE ( 2021, 30, 11 ) ;
#236 = DIRECTION ( 'NONE',  ( 4.275831445896959482E-31, 1.000000000000000000, 1.224646799147353454E-16 ) ) ;
#237 = AXIS2_PLACEMENT_3D ( 'NONE', #232, #233, #98 ) ;
#238 = FACE_OUTER_BOUND ( 'NONE', #229, .T. ) ;
#239 = APPLICATION_CONTEXT ( 'configuration controlled 3d designs of mechanical parts and assemblies' ) ;
#240 = FACE_BOUND ( 'NONE', #63, .T. ) ;
#241 = DIRECTION ( 'NONE',  ( 4.275831445896959482E-31, 1.000000000000000000, 1.224646799147353700E-16 ) ) ;
#242 = AXIS2_PLACEMENT_3D ( 'NONE', #129, #7, #261 ) ;
#243 = CIRCLE ( 'NONE', #270, 1.200000000000001510 ) ;
#244 =( LENGTH_UNIT ( ) NAMED_UNIT ( * ) SI_UNIT ( .MILLI., .METRE. ) );
#245 = VERTEX_POINT ( 'NONE', #151 ) ;
#246 = AXIS2_PLACEMENT_3D ( 'NONE', #262, #69, #47 ) ;
#247 = APPROVAL_PERSON_ORGANIZATION ( #92, #272, #231 ) ;
#248 = ORIENTED_EDGE ( 'NONE', *, *, #159, .F. ) ;
#249 = APPROVAL ( #195, 'UNSPECIFIED' ) ;
#250 = AXIS2_PLACEMENT_3D ( 'NONE', #46, #49, #122 ) ;
#251 = ORIENTED_EDGE ( 'NONE', *, *, #23, .F. ) ;
#252 = AXIS2_PLACEMENT_3D ( 'NONE', #33, #19, #54 ) ;
#253 = ADVANCED_FACE ( 'NONE', ( #295, #293 ), #220, .F. ) ;
#254 = VERTEX_POINT ( 'NONE', #174 ) ;
#255 = DATE_AND_TIME ( #24, #267 ) ;
#256 = ADVANCED_FACE ( 'NONE', ( #268 ), #78, .T. ) ;
#257 = EDGE_LOOP ( 'NONE', ( #185 ) ) ;
#258 = APPROVAL_DATE_TIME ( #62, #166 ) ;
#259 = DIRECTION ( 'NONE',  ( 4.275831445896959482E-31, 1.000000000000000000, 1.224646799147353700E-16 ) ) ;
#260 = PERSON_AND_ORGANIZATION ( #123, #300 ) ;
#261 = DIRECTION ( 'NONE',  ( 0.0000000000000000000, 1.000000000000000000, 0.0000000000000000000 ) ) ;
#262 = CARTESIAN_POINT ( 'NONE',  ( 3.491481338843133355E-14, -1.224646799147353454E-15, 10.00000000000000000 ) ) ;
#263 = CONICAL_SURFACE ( 'NONE', #198, 1.499999999999995559, 0.1745329251994261477 ) ;
#264 = FACE_OUTER_BOUND ( 'NONE', #282, .T. ) ;
#265 = FACE_OUTER_BOUND ( 'NONE', #183, .T. ) ;
#266 = CC_DESIGN_PERSON_AND_ORGANIZATION_ASSIGNMENT ( #192, #215, ( #16 ) ) ;
#267 = LOCAL_TIME ( 10, 1, 39.00000000000000000, #165 ) ;
#268 = FACE_OUTER_BOUND ( 'NONE', #257, .T. ) ;
#269 = DIRECTION ( 'NONE',  ( 3.491481338843133355E-15, -1.224646799147353454E-16, 1.000000000000000000 ) ) ;
#270 = AXIS2_PLACEMENT_3D ( 'NONE', #234, #29, #67 ) ;
#271 = EDGE_LOOP ( 'NONE', ( #90 ) ) ;
#272 = APPROVAL ( #140, 'UNSPECIFIED' ) ;
#273 =( NAMED_UNIT ( * ) SI_UNIT ( $, .STERADIAN. ) SOLID_ANGLE_UNIT ( ) );
#274 = MANIFOLD_SOLID_BREP ( 'Corps-Déplacer/Copier1[1]', #162 ) ;
#275 = CARTESIAN_POINT ( 'NONE',  ( 7.836102670519127414E-14, -2.748534825742750835E-15, 22.44349005489899085 ) ) ;
#276 = EDGE_LOOP ( 'NONE', ( #206 ) ) ;
#277 = AXIS2_PLACEMENT_3D ( 'NONE', #71, #169, #303 ) ;
#278 = MANIFOLD_SOLID_BREP ( 'Corps-Déplacer/Copier1[2]', #79 ) ;
#279 = CALENDAR_DATE ( 2021, 30, 11 ) ;
#280 = EDGE_LOOP ( 'NONE', ( #248 ) ) ;
#281 = DATE_AND_TIME ( #235, #89 ) ;
#282 = EDGE_LOOP ( 'NONE', ( #213 ) ) ;
#283 = PERSON_AND_ORGANIZATION ( #123, #300 ) ;
#284 = CARTESIAN_POINT ( 'NONE',  ( 2.119329172677781757E-13, -7.433606070824434221E-15, 60.69999999999999574 ) ) ;
#285 = EDGE_CURVE ( 'NONE', #82, #82, #227, .T. ) ;
#286 = CARTESIAN_POINT ( 'NONE',  ( -4.956383180652172545E-31, 1.738465198139834306E-32, -1.419564562901092041E-16 ) ) ;
#287 = PERSON_AND_ORGANIZATION ( #123, #300 ) ;
#288 = CARTESIAN_POINT ( 'NONE',  ( 8.728703347107827472E-16, -3.061616997868381785E-17, 0.2499999999999998335 ) ) ;
#289 = FACE_OUTER_BOUND ( 'NONE', #42, .T. ) ;
#290 = LOCAL_TIME ( 10, 1, 39.00000000000000000, #66 ) ;
#291 = DIRECTION ( 'NONE',  ( -3.491481338843133355E-15, 1.224646799147353454E-16, -1.000000000000000000 ) ) ;
#292 = CARTESIAN_POINT ( 'NONE',  ( 3.491481338843133355E-14, 1.303499999999998993, 10.00000000000000000 ) ) ;
#293 = FACE_OUTER_BOUND ( 'NONE', #161, .T. ) ;
#294 = ADVANCED_FACE ( 'NONE', ( #202, #228 ), #175, .T. ) ;
#295 = FACE_OUTER_BOUND ( 'NONE', #271, .T. ) ;
#296 = ORIENTED_EDGE ( 'NONE', *, *, #177, .F. ) ;
#297 = ORIENTED_EDGE ( 'NONE', *, *, #285, .F. ) ;
#298 = EDGE_LOOP ( 'NONE', ( #20 ) ) ;
#299 = CIRCLE ( 'NONE', #246, 1.303500000000000103 ) ;
#300 = ORGANIZATION ( 'UNSPECIFIED', 'UNSPECIFIED', '' ) ;
#301 = DATE_AND_TIME ( #279, #290 ) ;
#302 = ORIENTED_EDGE ( 'NONE', *, *, #36, .F. ) ;
#303 = DIRECTION ( 'NONE',  ( -4.432520010097209322E-31, -1.000000000000000000, -1.247643466611628692E-16 ) ) ;
ENDSEC;
END-ISO-10303-21;
