ISO-10303-21;
HEADER;
FILE_DESCRIPTION (( 'STEP AP203' ),
    '1' );
FILE_NAME ('200116.step',
    '2021-11-30T09:36:53',
    ( '' ),
    ( '' ),
    'SwSTEP 2.0',
    'SolidWorks 2019',
    '' );
FILE_SCHEMA (( 'CONFIG_CONTROL_DESIGN' ));
ENDSEC;

DATA;
#1 = APPROVAL_STATUS ( 'not_yet_approved' ) ;
#2 = DIRECTION ( 'NONE',  ( -3.491481338843133355E-15, 1.224646799147353454E-16, -1.000000000000000000 ) ) ;
#3 = FACE_BOUND ( 'NONE', #156, .T. ) ;
#4 = CIRCLE ( 'NONE', #302, 1.124999999999998224 ) ;
#5 = PRODUCT_DEFINITION_SHAPE ( 'NONE', 'NONE',  #153 ) ;
#6 = DIRECTION ( 'NONE',  ( 0.0000000000000000000, 1.000000000000000000, 0.0000000000000000000 ) ) ;
#7 = CIRCLE ( 'NONE', #149, 1.328500000000000014 ) ;
#8 = EDGE_CURVE ( 'NONE', #172, #172, #7, .T. ) ;
#9 = CARTESIAN_POINT ( 'NONE',  ( 9.532340403339406975E-14, 1.499999999999992673, 27.30170800940855003 ) ) ;
#10 = PLANE ( 'NONE',  #47 ) ;
#11 = EDGE_CURVE ( 'NONE', #270, #270, #157, .T. ) ;
#12 = AXIS2_PLACEMENT_3D ( 'NONE', #107, #115, #89 ) ;
#13 = CARTESIAN_POINT ( 'NONE',  ( -3.785471652766323589E-31, 1.184162432702594581, -1.084202172485504681E-16 ) ) ;
#14 = ORIENTED_EDGE ( 'NONE', *, *, #280, .F. ) ;
#15 = DIRECTION ( 'NONE',  ( 4.275831445896958607E-31, 1.000000000000000000, 1.224646799147353454E-16 ) ) ;
#16 = ORIENTED_EDGE ( 'NONE', *, *, #20, .T. ) ;
#17 = APPLICATION_PROTOCOL_DEFINITION ( 'international standard', 'config_control_design', 1994, #72 ) ;
#18 = DIRECTION ( 'NONE',  ( -4.349107890976073171E-31, -1.000000000000000000, -1.224165042324620430E-16 ) ) ;
#19 = DATE_TIME_ROLE ( 'classification_date' ) ;
#20 = EDGE_CURVE ( 'NONE', #174, #174, #22, .T. ) ;
#21 = CARTESIAN_POINT ( 'NONE',  ( 8.728703347107827472E-16, -3.061616997868381785E-17, 0.2499999999999998335 ) ) ;
#22 = CIRCLE ( 'NONE', #187, 1.500000000000001332 ) ;
#23 = APPROVAL_DATE_TIME ( #138, #163 ) ;
#24 = AXIS2_PLACEMENT_3D ( 'NONE', #144, #77, #119 ) ;
#25 = CYLINDRICAL_SURFACE ( 'NONE', #218, 1.499999999999998668 ) ;
#26 = AXIS2_PLACEMENT_3D ( 'NONE', #205, #43, #141 ) ;
#27 = AXIS2_PLACEMENT_3D ( 'NONE', #217, #75, #80 ) ;
#28 = CARTESIAN_POINT ( 'NONE',  ( 8.849961221477469775E-14, -3.104148534859897544E-15, 25.34729635533384595 ) ) ;
#29 = DIRECTION ( 'NONE',  ( 1.000000000000000000, 0.0000000000000000000, 0.0000000000000000000 ) ) ;
#30 = LOCAL_TIME ( 10, 36, 53.00000000000000000, #103 ) ;
#31 = ADVANCED_FACE ( 'NONE', ( #102, #81 ), #273, .T. ) ;
#32 = DIRECTION ( 'NONE',  ( 3.491481338843133355E-15, -1.224646799147353454E-16, 1.000000000000000000 ) ) ;
#33 = DIRECTION ( 'NONE',  ( -3.491481338843133355E-15, 1.224646799147353454E-16, -1.000000000000000000 ) ) ;
#34 = CONICAL_SURFACE ( 'NONE', #177, 1.200000000000001510, 0.7853981633974453924 ) ;
#35 = CARTESIAN_POINT ( 'NONE',  ( -8.848750619565918391E-31, 3.103723912869361158E-32, -2.534382905365280608E-16 ) ) ;
#36 =( LENGTH_UNIT ( ) NAMED_UNIT ( * ) SI_UNIT ( .MILLI., .METRE. ) );
#37 = ORIENTED_EDGE ( 'NONE', *, *, #104, .F. ) ;
#38 = DATE_TIME_ROLE ( 'creation_date' ) ;
#39 = ORIENTED_EDGE ( 'NONE', *, *, #264, .T. ) ;
#40 = PERSON_AND_ORGANIZATION_ROLE ( 'creator' ) ;
#41 = ORIENTED_EDGE ( 'NONE', *, *, #264, .F. ) ;
#42 = APPROVAL_STATUS ( 'not_yet_approved' ) ;
#43 = DIRECTION ( 'NONE',  ( 3.491481338843133355E-15, -1.224646799147353454E-16, 1.000000000000000000 ) ) ;
#44 = APPROVAL_ROLE ( '' ) ;
#45 = CARTESIAN_POINT ( 'NONE',  ( 3.491481338843133355E-14, 9.962154356331375120E-33, 10.00000000000000000 ) ) ;
#46 = AXIS2_PLACEMENT_3D ( 'NONE', #278, #236, #109 ) ;
#47 = AXIS2_PLACEMENT_3D ( 'NONE', #78, #32, #272 ) ;
#48 = FACE_OUTER_BOUND ( 'NONE', #83, .T. ) ;
#49 = PRODUCT ( '200116', '200116', '', ( #55 ) ) ;
#50 = AXIS2_PLACEMENT_3D ( 'NONE', #165, #178, #276 ) ;
#51 = APPROVAL_PERSON_ORGANIZATION ( #86, #163, #44 ) ;
#52 = CARTESIAN_POINT ( 'NONE',  ( 8.728703347107833388E-14, -3.035766082959412415E-15, 25.00000000000000000 ) ) ;
#53 = FACE_OUTER_BOUND ( 'NONE', #296, .T. ) ;
#54 = PERSON_AND_ORGANIZATION ( #267, #193 ) ;
#55 = MECHANICAL_CONTEXT ( 'NONE', #64, 'mechanical' ) ;
#56 = EDGE_LOOP ( 'NONE', ( #105 ) ) ;
#57 = CARTESIAN_POINT ( 'NONE',  ( 0.0000000000000000000, 0.0000000000000000000, 0.0000000000000000000 ) ) ;
#58 = APPROVAL_ROLE ( '' ) ;
#59 = ORIENTED_EDGE ( 'NONE', *, *, #8, .T. ) ;
#60 = EDGE_LOOP ( 'NONE', ( #203 ) ) ;
#61 = CIRCLE ( 'NONE', #50, 1.499999999999996003 ) ;
#62 = ADVANCED_FACE ( 'NONE', ( #48 ), #143, .F. ) ;
#63 = AXIS2_PLACEMENT_3D ( 'NONE', #94, #33, #288 ) ;
#64 = APPLICATION_CONTEXT ( 'configuration controlled 3d designs of mechanical parts and assemblies' ) ;
#65 = DIRECTION ( 'NONE',  ( -3.491481338843133355E-15, 1.224646799147353454E-16, -1.000000000000000000 ) ) ;
#66 = CALENDAR_DATE ( 2021, 30, 11 ) ;
#67 = FACE_OUTER_BOUND ( 'NONE', #291, .T. ) ;
#68 = FACE_OUTER_BOUND ( 'NONE', #99, .T. ) ;
#69 = CIRCLE ( 'NONE', #192, 1.155384493975578852 ) ;
#70 = SECURITY_CLASSIFICATION ( '', '', #279 ) ;
#71 = CARTESIAN_POINT ( 'NONE',  ( 0.0000000000000000000, 0.0000000000000000000, 0.0000000000000000000 ) ) ;
#72 = APPLICATION_CONTEXT ( 'configuration controlled 3d designs of mechanical parts and assemblies' ) ;
#73 =( GEOMETRIC_REPRESENTATION_CONTEXT ( 3 ) GLOBAL_UNCERTAINTY_ASSIGNED_CONTEXT ( ( #121 ) ) GLOBAL_UNIT_ASSIGNED_CONTEXT ( ( #36, #145, #244 ) ) REPRESENTATION_CONTEXT ( 'NONE', 'WORKASPACE' ) );
#74 = DIRECTION ( 'NONE',  ( -3.491481338843133355E-15, 1.224646799147353454E-16, -1.000000000000000000 ) ) ;
#75 = DIRECTION ( 'NONE',  ( 3.491481338843133355E-15, -1.224646799147353454E-16, 1.000000000000000000 ) ) ;
#76 = CARTESIAN_POINT ( 'NONE',  ( 3.614546398369628854E-14, -1.267812211363458297E-15, 10.35247233934027378 ) ) ;
#77 = DIRECTION ( 'NONE',  ( -3.491481338843133355E-15, 1.224646799147353454E-16, -1.000000000000000000 ) ) ;
#78 = CARTESIAN_POINT ( 'NONE',  ( -4.424375309782959195E-31, 1.551861956434680579E-32, -1.267191452682640304E-16 ) ) ;
#79 = EDGE_LOOP ( 'NONE', ( #41 ) ) ;
#80 = DIRECTION ( 'NONE',  ( 0.0000000000000000000, -1.000000000000000000, 0.0000000000000000000 ) ) ;
#81 = FACE_OUTER_BOUND ( 'NONE', #56, .T. ) ;
#82 = EDGE_LOOP ( 'NONE', ( #271 ) ) ;
#83 = EDGE_LOOP ( 'NONE', ( #268 ) ) ;
#84 = PERSON_AND_ORGANIZATION_ROLE ( 'classification_officer' ) ;
#85 = DIRECTION ( 'NONE',  ( -3.491481338843133355E-15, 1.224646799147353454E-16, -1.000000000000000000 ) ) ;
#86 = PERSON_AND_ORGANIZATION ( #267, #193 ) ;
#87 = DIRECTION ( 'NONE',  ( 4.275831445896959482E-31, 1.000000000000000000, 1.224646799147353454E-16 ) ) ;
#88 = PERSON_AND_ORGANIZATION_ROLE ( 'creator' ) ;
#89 = DIRECTION ( 'NONE',  ( 0.0000000000000000000, 1.000000000000000000, 0.0000000000000000000 ) ) ;
#90 = CARTESIAN_POINT ( 'NONE',  ( 0.0000000000000000000, 0.0000000000000000000, 0.0000000000000000000 ) ) ;
#91 = ADVANCED_FACE ( 'NONE', ( #142, #113 ), #25, .T. ) ;
#92 = FACE_OUTER_BOUND ( 'NONE', #298, .T. ) ;
#93 = VERTEX_POINT ( 'NONE', #169 ) ;
#94 = CARTESIAN_POINT ( 'NONE',  ( 8.728703347107833388E-14, -3.061616997868383831E-15, 25.00000000000000000 ) ) ;
#95 = CONICAL_SURFACE ( 'NONE', #275, 1.328499999999998682, 0.5235987755982918213 ) ;
#96 = CC_DESIGN_APPROVAL ( #240, ( #168 ) ) ;
#97 = EDGE_LOOP ( 'NONE', ( #37 ) ) ;
#98 = VERTEX_POINT ( 'NONE', #9 ) ;
#99 = EDGE_LOOP ( 'NONE', ( #293 ) ) ;
#100 = ADVANCED_FACE ( 'NONE', ( #303 ), #263, .F. ) ;
#101 = CARTESIAN_POINT ( 'NONE',  ( 2.119329172677781757E-13, -7.433606070824434221E-15, 60.69999999999999574 ) ) ;
#102 = FACE_OUTER_BOUND ( 'NONE', #79, .T. ) ;
#103 = COORDINATED_UNIVERSAL_TIME_OFFSET ( 1, 0, .AHEAD. ) ;
#104 = EDGE_CURVE ( 'NONE', #289, #289, #228, .T. ) ;
#105 = ORIENTED_EDGE ( 'NONE', *, *, #104, .T. ) ;
#106 = APPROVAL_DATE_TIME ( #180, #240 ) ;
#107 = CARTESIAN_POINT ( 'NONE',  ( 3.614546398369628854E-14, -1.267812211363458297E-15, 10.35247233934027378 ) ) ;
#108 = SHAPE_DEFINITION_REPRESENTATION ( #5, #212 ) ;
#109 = DIRECTION ( 'NONE',  ( 4.275831445896959482E-31, 1.000000000000000000, 1.224646799147353454E-16 ) ) ;
#110 = CIRCLE ( 'NONE', #286, 1.200000000000001510 ) ;
#111 = DIRECTION ( 'NONE',  ( -4.275831445896959482E-31, -1.000000000000000000, -1.224646799147353454E-16 ) ) ;
#112 = CC_DESIGN_PERSON_AND_ORGANIZATION_ASSIGNMENT ( #54, #127, ( #49 ) ) ;
#113 = FACE_OUTER_BOUND ( 'NONE', #197, .T. ) ;
#114 = EDGE_CURVE ( 'NONE', #93, #93, #69, .T. ) ;
#115 = DIRECTION ( 'NONE',  ( -3.491481338843133355E-15, 1.224646799147353454E-16, -1.000000000000000000 ) ) ;
#116 = AXIS2_PLACEMENT_3D ( 'NONE', #52, #85, #87 ) ;
#117 = LOCAL_TIME ( 10, 36, 53.00000000000000000, #134 ) ;
#118 = VERTEX_POINT ( 'NONE', #120 ) ;
#119 = DIRECTION ( 'NONE',  ( 4.349107890976073171E-31, 1.000000000000000000, 1.224165042324620430E-16 ) ) ;
#120 = CARTESIAN_POINT ( 'NONE',  ( 3.614546398369628854E-14, 1.124999999999996891, 10.35247233934027378 ) ) ;
#121 = UNCERTAINTY_MEASURE_WITH_UNIT (LENGTH_MEASURE( 1.000000000000000082E-05 ), #36, 'distance_accuracy_value', 'NONE');
#122 = DIRECTION ( 'NONE',  ( -3.491481338843133355E-15, 1.224646799147353454E-16, -1.000000000000000000 ) ) ;
#123 = AXIS2_PLACEMENT_3D ( 'NONE', #237, #2, #137 ) ;
#124 = CC_DESIGN_DATE_AND_TIME_ASSIGNMENT ( #233, #19, ( #70 ) ) ;
#125 = CC_DESIGN_APPROVAL ( #184, ( #153 ) ) ;
#126 = EDGE_LOOP ( 'NONE', ( #254 ) ) ;
#127 = PERSON_AND_ORGANIZATION_ROLE ( 'design_owner' ) ;
#128 = CARTESIAN_POINT ( 'NONE',  ( 3.491481338843133355E-14, -1.224646799147353454E-15, 10.00000000000000000 ) ) ;
#129 = DATE_AND_TIME ( #253, #208 ) ;
#130 = CC_DESIGN_PERSON_AND_ORGANIZATION_ASSIGNMENT ( #257, #40, ( #153 ) ) ;
#131 = PERSON_AND_ORGANIZATION ( #267, #193 ) ;
#132 = LOCAL_TIME ( 10, 36, 53.00000000000000000, #226 ) ;
#133 = ORIENTED_EDGE ( 'NONE', *, *, #249, .T. ) ;
#134 = COORDINATED_UNIVERSAL_TIME_OFFSET ( 1, 0, .AHEAD. ) ;
#135 = ORIENTED_EDGE ( 'NONE', *, *, #146, .T. ) ;
#136 = PERSON_AND_ORGANIZATION ( #267, #193 ) ;
#137 = DIRECTION ( 'NONE',  ( 0.0000000000000000000, 1.000000000000000000, 0.0000000000000000000 ) ) ;
#138 = DATE_AND_TIME ( #297, #132 ) ;
#139 = EDGE_CURVE ( 'NONE', #216, #216, #110, .T. ) ;
#140 = DIRECTION ( 'NONE',  ( 3.491481338843133355E-15, -1.224646799147353454E-16, 1.000000000000000000 ) ) ;
#141 = DIRECTION ( 'NONE',  ( -4.275831445896959482E-31, -1.000000000000000000, -1.224646799147353454E-16 ) ) ;
#142 = FACE_OUTER_BOUND ( 'NONE', #230, .T. ) ;
#143 = PLANE ( 'NONE',  #46 ) ;
#144 = CARTESIAN_POINT ( 'NONE',  ( 8.728703347107827472E-16, -3.061616997868381785E-17, 0.2499999999999998335 ) ) ;
#145 =( NAMED_UNIT ( * ) PLANE_ANGLE_UNIT ( ) SI_UNIT ( $, .RADIAN. ) );
#146 = EDGE_CURVE ( 'NONE', #98, #98, #61, .T. ) ;
#147 = CARTESIAN_POINT ( 'NONE',  ( 3.491481338843133355E-14, 1.328499999999998682, 10.00000000000000000 ) ) ;
#148 = EDGE_LOOP ( 'NONE', ( #59 ) ) ;
#149 = AXIS2_PLACEMENT_3D ( 'NONE', #128, #227, #246 ) ;
#150 = AXIS2_PLACEMENT_3D ( 'NONE', #45, #140, #111 ) ;
#151 = CIRCLE ( 'NONE', #24, 1.328499999999998682 ) ;
#152 = EDGE_LOOP ( 'NONE', ( #173 ) ) ;
#153 = PRODUCT_DEFINITION ( 'UNKNOWN', '', #168, #221 ) ;
#154 = DIRECTION ( 'NONE',  ( -3.491481338843133355E-15, 1.224646799147353454E-16, -1.000000000000000000 ) ) ;
#155 = PERSON_AND_ORGANIZATION ( #267, #193 ) ;
#156 = EDGE_LOOP ( 'NONE', ( #158 ) ) ;
#157 = CIRCLE ( 'NONE', #207, 1.184162432702594581 ) ;
#158 = ORIENTED_EDGE ( 'NONE', *, *, #139, .T. ) ;
#159 = CALENDAR_DATE ( 2021, 30, 11 ) ;
#160 = FACE_OUTER_BOUND ( 'NONE', #97, .T. ) ;
#161 = DIRECTION ( 'NONE',  ( -3.491481338843133355E-15, 1.224646799147353454E-16, -1.000000000000000000 ) ) ;
#162 = CONICAL_SURFACE ( 'NONE', #27, 1.499999999999996003, 0.1745329251994267861 ) ;
#163 = APPROVAL ( #231, 'UNSPECIFIED' ) ;
#164 = LOCAL_TIME ( 10, 36, 53.00000000000000000, #277 ) ;
#165 = CARTESIAN_POINT ( 'NONE',  ( 9.532340403339406975E-14, -3.343494932497784605E-15, 27.30170800940855003 ) ) ;
#166 = CC_DESIGN_PERSON_AND_ORGANIZATION_ASSIGNMENT ( #136, #88, ( #168 ) ) ;
#167 = DIRECTION ( 'NONE',  ( 4.275831445896959482E-31, 1.000000000000000000, 1.224646799147353454E-16 ) ) ;
#168 = PRODUCT_DEFINITION_FORMATION_WITH_SPECIFIED_SOURCE ( 'ANY', '', #49, .NOT_KNOWN. ) ;
#169 = CARTESIAN_POINT ( 'NONE',  ( 8.849961221477469775E-14, 1.155384493975575966, 25.34729635533384595 ) ) ;
#170 = ADVANCED_FACE ( 'NONE', ( #281, #92 ), #95, .T. ) ;
#171 = CARTESIAN_POINT ( 'NONE',  ( 2.129803616694311221E-13, 1.199999999999993960, 61.00000000000000000 ) ) ;
#172 = VERTEX_POINT ( 'NONE', #147 ) ;
#173 = ORIENTED_EDGE ( 'NONE', *, *, #11, .T. ) ;
#174 = VERTEX_POINT ( 'NONE', #223 ) ;
#175 = ORIENTED_EDGE ( 'NONE', *, *, #114, .F. ) ;
#176 = ORIENTED_EDGE ( 'NONE', *, *, #114, .T. ) ;
#177 = AXIS2_PLACEMENT_3D ( 'NONE', #287, #181, #265 ) ;
#178 = DIRECTION ( 'NONE',  ( -3.491481338843133355E-15, 1.224646799147353454E-16, -1.000000000000000000 ) ) ;
#179 = CC_DESIGN_PERSON_AND_ORGANIZATION_ASSIGNMENT ( #155, #259, ( #168 ) ) ;
#180 = DATE_AND_TIME ( #159, #30 ) ;
#181 = DIRECTION ( 'NONE',  ( -3.491481338843133355E-15, 1.224646799147353454E-16, -1.000000000000000000 ) ) ;
#182 = APPROVAL_ROLE ( '' ) ;
#183 = PLANE ( 'NONE',  #150 ) ;
#184 = APPROVAL ( #1, 'UNSPECIFIED' ) ;
#185 = FACE_OUTER_BOUND ( 'NONE', #60, .T. ) ;
#186 = CC_DESIGN_SECURITY_CLASSIFICATION ( #70, ( #168 ) ) ;
#187 = AXIS2_PLACEMENT_3D ( 'NONE', #101, #199, #295 ) ;
#188 = ADVANCED_FACE ( 'NONE', ( #300, #211 ), #238, .T. ) ;
#189 = DIRECTION ( 'NONE',  ( 3.491481338843133355E-15, -1.224646799147353454E-16, 1.000000000000000000 ) ) ;
#190 = CARTESIAN_POINT ( 'NONE',  ( 8.728703347107833388E-14, 1.124999999999996669, 25.00000000000000000 ) ) ;
#191 = ADVANCED_FACE ( 'NONE', ( #213, #3 ), #34, .T. ) ;
#192 = AXIS2_PLACEMENT_3D ( 'NONE', #28, #210, #6 ) ;
#193 = ORGANIZATION ( 'UNSPECIFIED', 'UNSPECIFIED', '' ) ;
#194 = CARTESIAN_POINT ( 'NONE',  ( 8.728703347107833388E-16, 1.328499999999998682, 0.2500000000000000000 ) ) ;
#195 = EDGE_LOOP ( 'NONE', ( #133 ) ) ;
#196 = VERTEX_POINT ( 'NONE', #194 ) ;
#197 = EDGE_LOOP ( 'NONE', ( #16 ) ) ;
#198 = CARTESIAN_POINT ( 'NONE',  ( 0.0000000000000000000, 0.0000000000000000000, 0.0000000000000000000 ) ) ;
#199 = DIRECTION ( 'NONE',  ( -3.491481338843133355E-15, 1.224646799147353454E-16, -1.000000000000000000 ) ) ;
#200 = APPROVAL_PERSON_ORGANIZATION ( #235, #184, #58 ) ;
#201 = EDGE_LOOP ( 'NONE', ( #175 ) ) ;
#202 = PERSON_AND_ORGANIZATION ( #267, #193 ) ;
#203 = ORIENTED_EDGE ( 'NONE', *, *, #280, .T. ) ;
#204 = ADVANCED_FACE ( 'NONE', ( #260, #67 ), #247, .F. ) ;
#205 = CARTESIAN_POINT ( 'NONE',  ( 3.491481338843133355E-14, 9.962154356331375120E-33, 10.00000000000000000 ) ) ;
#206 = CALENDAR_DATE ( 2021, 30, 11 ) ;
#207 = AXIS2_PLACEMENT_3D ( 'NONE', #35, #224, #15 ) ;
#208 = LOCAL_TIME ( 10, 36, 53.00000000000000000, #299 ) ;
#209 = DIRECTION ( 'NONE',  ( 0.0000000000000000000, 1.000000000000000000, 0.0000000000000000000 ) ) ;
#210 = DIRECTION ( 'NONE',  ( -3.491481338843133355E-15, 1.224646799147353454E-16, -1.000000000000000000 ) ) ;
#211 = FACE_BOUND ( 'NONE', #195, .T. ) ;
#212 = ADVANCED_BREP_SHAPE_REPRESENTATION ( '200116', ( #261, #250, #214 ), #73 ) ;
#213 = FACE_OUTER_BOUND ( 'NONE', #274, .T. ) ;
#214 = AXIS2_PLACEMENT_3D ( 'NONE', #198, #241, #29 ) ;
#215 = ADVANCED_FACE ( 'NONE', ( #160 ), #183, .T. ) ;
#216 = VERTEX_POINT ( 'NONE', #171 ) ;
#217 = CARTESIAN_POINT ( 'NONE',  ( 9.532340403339406975E-14, -3.343494932497784605E-15, 27.30170800940855003 ) ) ;
#218 = AXIS2_PLACEMENT_3D ( 'NONE', #90, #65, #258 ) ;
#219 = AXIS2_PLACEMENT_3D ( 'NONE', #71, #74, #167 ) ;
#220 = FACE_OUTER_BOUND ( 'NONE', #152, .T. ) ;
#221 = DESIGN_CONTEXT ( 'detailed design', #72, 'design' ) ;
#222 = ORIENTED_EDGE ( 'NONE', *, *, #20, .F. ) ;
#223 = CARTESIAN_POINT ( 'NONE',  ( 2.119329172677781757E-13, 1.499999999999994005, 60.69999999999999574 ) ) ;
#224 = DIRECTION ( 'NONE',  ( -3.491481338843133355E-15, 1.224646799147353454E-16, -1.000000000000000000 ) ) ;
#225 = ADVANCED_FACE ( 'NONE', ( #68, #185 ), #284, .T. ) ;
#226 = COORDINATED_UNIVERSAL_TIME_OFFSET ( 1, 0, .AHEAD. ) ;
#227 = DIRECTION ( 'NONE',  ( -3.491481338843133355E-15, 1.224646799147353454E-16, -1.000000000000000000 ) ) ;
#228 = CIRCLE ( 'NONE', #123, 1.328500000000000014 ) ;
#229 = APPROVAL_DATE_TIME ( #129, #184 ) ;
#230 = EDGE_LOOP ( 'NONE', ( #256 ) ) ;
#231 = APPROVAL_STATUS ( 'not_yet_approved' ) ;
#232 = ADVANCED_FACE ( 'NONE', ( #266, #53 ), #162, .T. ) ;
#233 = DATE_AND_TIME ( #66, #164 ) ;
#234 = CARTESIAN_POINT ( 'NONE',  ( 2.129803616694311221E-13, -7.470345474798856659E-15, 61.00000000000000000 ) ) ;
#235 = PERSON_AND_ORGANIZATION ( #267, #193 ) ;
#236 = DIRECTION ( 'NONE',  ( -3.491481338843133355E-15, 1.224646799147353454E-16, -1.000000000000000000 ) ) ;
#237 = CARTESIAN_POINT ( 'NONE',  ( 3.491481338843133355E-14, -1.224646799147353454E-15, 10.00000000000000000 ) ) ;
#238 = CONICAL_SURFACE ( 'NONE', #12, 1.124999999999998224, 0.5235987755982934866 ) ;
#239 = APPROVAL_PERSON_ORGANIZATION ( #202, #240, #182 ) ;
#240 = APPROVAL ( #42, 'UNSPECIFIED' ) ;
#241 = DIRECTION ( 'NONE',  ( 0.0000000000000000000, 0.0000000000000000000, 1.000000000000000000 ) ) ;
#242 = AXIS2_PLACEMENT_3D ( 'NONE', #57, #154, #252 ) ;
#243 = CC_DESIGN_APPROVAL ( #163, ( #70 ) ) ;
#244 =( NAMED_UNIT ( * ) SI_UNIT ( $, .STERADIAN. ) SOLID_ANGLE_UNIT ( ) );
#245 = CARTESIAN_POINT ( 'NONE',  ( 3.491481338843133355E-14, 1.328499999999998682, 10.00000000000000000 ) ) ;
#246 = DIRECTION ( 'NONE',  ( 0.0000000000000000000, 1.000000000000000000, 0.0000000000000000000 ) ) ;
#247 = TOROIDAL_SURFACE ( 'NONE', #116, 3.124999999999999556, 2.000000000000000888 ) ;
#248 = APPLICATION_PROTOCOL_DEFINITION ( 'international standard', 'config_control_design', 1994, #64 ) ;
#249 = EDGE_CURVE ( 'NONE', #118, #118, #4, .T. ) ;
#250 = MANIFOLD_SOLID_BREP ( 'Corps-Déplacer/Copier1[2]', #255 ) ;
#251 = EDGE_LOOP ( 'NONE', ( #14 ) ) ;
#252 = DIRECTION ( 'NONE',  ( 4.275831445896959482E-31, 1.000000000000000000, 1.224646799147353454E-16 ) ) ;
#253 = CALENDAR_DATE ( 2021, 30, 11 ) ;
#254 = ORIENTED_EDGE ( 'NONE', *, *, #8, .F. ) ;
#255 = CLOSED_SHELL ( 'NONE', ( #285, #170, #31, #215 ) ) ;
#256 = ORIENTED_EDGE ( 'NONE', *, *, #146, .F. ) ;
#257 = PERSON_AND_ORGANIZATION ( #267, #193 ) ;
#258 = DIRECTION ( 'NONE',  ( 4.275831445896960358E-31, 1.000000000000000000, 1.224646799147353454E-16 ) ) ;
#259 = PERSON_AND_ORGANIZATION_ROLE ( 'design_supplier' ) ;
#260 = FACE_OUTER_BOUND ( 'NONE', #251, .T. ) ;
#261 = MANIFOLD_SOLID_BREP ( 'Corps-Déplacer/Copier1[1]', #282 ) ;
#262 = CC_DESIGN_PERSON_AND_ORGANIZATION_ASSIGNMENT ( #131, #84, ( #70 ) ) ;
#263 = PLANE ( 'NONE',  #26 ) ;
#264 = EDGE_CURVE ( 'NONE', #196, #196, #151, .T. ) ;
#265 = DIRECTION ( 'NONE',  ( 0.0000000000000000000, 1.000000000000000000, 0.0000000000000000000 ) ) ;
#266 = FACE_BOUND ( 'NONE', #201, .T. ) ;
#267 = PERSON ( 'UNSPECIFIED', 'UNSPECIFIED', 'UNSPECIFIED', ('UNSPECIFIED'), ('UNSPECIFIED'), ('UNSPECIFIED') ) ;
#268 = ORIENTED_EDGE ( 'NONE', *, *, #139, .F. ) ;
#269 = PRODUCT_RELATED_PRODUCT_CATEGORY ( 'detail', '', ( #49 ) ) ;
#270 = VERTEX_POINT ( 'NONE', #13 ) ;
#271 = ORIENTED_EDGE ( 'NONE', *, *, #11, .F. ) ;
#272 = DIRECTION ( 'NONE',  ( -4.275831445896959482E-31, -1.000000000000000000, -1.224646799147353454E-16 ) ) ;
#273 = CYLINDRICAL_SURFACE ( 'NONE', #242, 1.328499999999999348 ) ;
#274 = EDGE_LOOP ( 'NONE', ( #222 ) ) ;
#275 = AXIS2_PLACEMENT_3D ( 'NONE', #21, #189, #18 ) ;
#276 = DIRECTION ( 'NONE',  ( 0.0000000000000000000, 1.000000000000000000, 0.0000000000000000000 ) ) ;
#277 = COORDINATED_UNIVERSAL_TIME_OFFSET ( 1, 0, .AHEAD. ) ;
#278 = CARTESIAN_POINT ( 'NONE',  ( 2.129803616694311221E-13, 8.998558695971049855E-33, 61.00000000000000000 ) ) ;
#279 = SECURITY_CLASSIFICATION_LEVEL ( 'unclassified' ) ;
#280 = EDGE_CURVE ( 'NONE', #290, #290, #283, .T. ) ;
#281 = FACE_BOUND ( 'NONE', #82, .T. ) ;
#282 = CLOSED_SHELL ( 'NONE', ( #100, #188, #225, #204, #232, #91, #191, #62 ) ) ;
#283 = CIRCLE ( 'NONE', #63, 1.124999999999999778 ) ;
#284 = CYLINDRICAL_SURFACE ( 'NONE', #219, 1.124999999999998890 ) ;
#285 = ADVANCED_FACE ( 'NONE', ( #220 ), #10, .F. ) ;
#286 = AXIS2_PLACEMENT_3D ( 'NONE', #234, #161, #209 ) ;
#287 = CARTESIAN_POINT ( 'NONE',  ( 2.129803616694311221E-13, -7.470345474798856659E-15, 61.00000000000000000 ) ) ;
#288 = DIRECTION ( 'NONE',  ( 0.0000000000000000000, 1.000000000000000000, 0.0000000000000000000 ) ) ;
#289 = VERTEX_POINT ( 'NONE', #245 ) ;
#290 = VERTEX_POINT ( 'NONE', #190 ) ;
#291 = EDGE_LOOP ( 'NONE', ( #176 ) ) ;
#292 = CC_DESIGN_DATE_AND_TIME_ASSIGNMENT ( #301, #38, ( #153 ) ) ;
#293 = ORIENTED_EDGE ( 'NONE', *, *, #249, .F. ) ;
#294 = DIRECTION ( 'NONE',  ( 0.0000000000000000000, 1.000000000000000000, 0.0000000000000000000 ) ) ;
#295 = DIRECTION ( 'NONE',  ( 0.0000000000000000000, 1.000000000000000000, 0.0000000000000000000 ) ) ;
#296 = EDGE_LOOP ( 'NONE', ( #135 ) ) ;
#297 = CALENDAR_DATE ( 2021, 30, 11 ) ;
#298 = EDGE_LOOP ( 'NONE', ( #39 ) ) ;
#299 = COORDINATED_UNIVERSAL_TIME_OFFSET ( 1, 0, .AHEAD. ) ;
#300 = FACE_OUTER_BOUND ( 'NONE', #126, .T. ) ;
#301 = DATE_AND_TIME ( #206, #117 ) ;
#302 = AXIS2_PLACEMENT_3D ( 'NONE', #76, #122, #294 ) ;
#303 = FACE_OUTER_BOUND ( 'NONE', #148, .T. ) ;
ENDSEC;
END-ISO-10303-21;
