ISO-10303-21;
HEADER;
FILE_DESCRIPTION (( 'STEP AP203' ),
    '1' );
FILE_NAME ('200115.step',
    '2021-11-30T08:32:34',
    ( '' ),
    ( '' ),
    'SwSTEP 2.0',
    'SolidWorks 2019',
    '' );
FILE_SCHEMA (( 'CONFIG_CONTROL_DESIGN' ));
ENDSEC;

DATA;
#1 = PERSON_AND_ORGANIZATION ( #112, #92 ) ;
#2 = EDGE_LOOP ( 'NONE', ( #5 ) ) ;
#3 = APPROVAL_DATE_TIME ( #22, #260 ) ;
#4 = ADVANCED_FACE ( 'NONE', ( #26 ), #302, .T. ) ;
#5 = ORIENTED_EDGE ( 'NONE', *, *, #105, .T. ) ;
#6 = DESIGN_CONTEXT ( 'detailed design', #190, 'design' ) ;
#7 = ORIENTED_EDGE ( 'NONE', *, *, #227, .F. ) ;
#8 = PLANE ( 'NONE',  #251 ) ;
#9 = DIRECTION ( 'NONE',  ( -3.491481338843133355E-15, 1.224646799147353207E-16, -1.000000000000000000 ) ) ;
#10 = DIRECTION ( 'NONE',  ( -3.491481338843133355E-15, 1.224646799147353207E-16, -1.000000000000000000 ) ) ;
#11 = EDGE_CURVE ( 'NONE', #247, #247, #115, .T. ) ;
#12 = AXIS2_PLACEMENT_3D ( 'NONE', #175, #264, #265 ) ;
#13 = CYLINDRICAL_SURFACE ( 'NONE', #275, 0.8250000000000001776 ) ;
#14 = CARTESIAN_POINT ( 'NONE',  ( 1.745740669421566678E-13, -6.123233995736766085E-15, 50.00000000000000000 ) ) ;
#15 = PERSON_AND_ORGANIZATION_ROLE ( 'design_owner' ) ;
#16 = CARTESIAN_POINT ( 'NONE',  ( 6.405924284287273902E-14, 0.8553844939755776977, 18.34729635533384240 ) ) ;
#17 = MANIFOLD_SOLID_BREP ( 'Corps-Déplacer/Copier1[2]', #151 ) ;
#18 =( NAMED_UNIT ( * ) PLANE_ANGLE_UNIT ( ) SI_UNIT ( $, .RADIAN. ) );
#19 = CONICAL_SURFACE ( 'NONE', #37, 0.9785000000000000364, 0.5235987755982985936 ) ;
#20 = APPROVAL_STATUS ( 'not_yet_approved' ) ;
#21 = PERSON_AND_ORGANIZATION ( #112, #92 ) ;
#22 = DATE_AND_TIME ( #216, #54 ) ;
#23 = PERSON_AND_ORGANIZATION_ROLE ( 'creator' ) ;
#24 = EDGE_LOOP ( 'NONE', ( #50 ) ) ;
#25 = ORIENTED_EDGE ( 'NONE', *, *, #105, .F. ) ;
#26 = FACE_OUTER_BOUND ( 'NONE', #101, .T. ) ;
#27 = CARTESIAN_POINT ( 'NONE',  ( 2.793185071074506684E-14, 7.337574736673124306E-33, 8.000000000000000000 ) ) ;
#28 = ADVANCED_FACE ( 'NONE', ( #64, #114 ), #246, .T. ) ;
#29 = ORIENTED_EDGE ( 'NONE', *, *, #133, .T. ) ;
#30 = DIRECTION ( 'NONE',  ( -3.491481338843133355E-15, 1.224646799147353207E-16, -1.000000000000000000 ) ) ;
#31 = AXIS2_PLACEMENT_3D ( 'NONE', #51, #195, #284 ) ;
#32 = DIRECTION ( 'NONE',  ( 4.275831445896958607E-31, 1.000000000000000000, 1.224646799147353454E-16 ) ) ;
#33 = VERTEX_POINT ( 'NONE', #197 ) ;
#34 = CARTESIAN_POINT ( 'NONE',  ( 2.793185071074506684E-14, -9.797174393178825657E-16, 8.000000000000000000 ) ) ;
#35 = DIRECTION ( 'NONE',  ( 0.0000000000000000000, 0.0000000000000000000, 1.000000000000000000 ) ) ;
#36 = DIRECTION ( 'NONE',  ( -3.936494520975448210E-31, -1.000000000000000000, -1.108024703613189232E-16 ) ) ;
#37 = AXIS2_PLACEMENT_3D ( 'NONE', #240, #9, #126 ) ;
#38 = DIRECTION ( 'NONE',  ( 4.275831445896958607E-31, 1.000000000000000000, 1.224646799147353207E-16 ) ) ;
#39 = LOCAL_TIME ( 9, 32, 34.00000000000000000, #97 ) ;
#40 = EDGE_CURVE ( 'NONE', #63, #63, #149, .T. ) ;
#41 = APPLICATION_PROTOCOL_DEFINITION ( 'international standard', 'config_control_design', 1994, #190 ) ;
#42 = CARTESIAN_POINT ( 'NONE',  ( 1.745740669421566678E-13, 1.199999999999995515, 50.00000000000000000 ) ) ;
#43 = DIRECTION ( 'NONE',  ( 0.0000000000000000000, 1.000000000000000000, 0.0000000000000000000 ) ) ;
#44 = DIRECTION ( 'NONE',  ( 4.275831445896958607E-31, 1.000000000000000000, 1.224646799147353207E-16 ) ) ;
#45 = AXIS2_PLACEMENT_3D ( 'NONE', #34, #202, #154 ) ;
#46 = DATE_AND_TIME ( #120, #276 ) ;
#47 = APPROVAL_DATE_TIME ( #46, #139 ) ;
#48 = EDGE_LOOP ( 'NONE', ( #29 ) ) ;
#49 = AXIS2_PLACEMENT_3D ( 'NONE', #187, #170, #128 ) ;
#50 = ORIENTED_EDGE ( 'NONE', *, *, #76, .F. ) ;
#51 = CARTESIAN_POINT ( 'NONE',  ( 2.793185071074506684E-14, 7.337574736673124306E-33, 8.000000000000000000 ) ) ;
#52 = EDGE_CURVE ( 'NONE', #252, #252, #117, .T. ) ;
#53 = CONICAL_SURFACE ( 'NONE', #177, 1.200000000000001732, 0.7853981633974453924 ) ;
#54 = LOCAL_TIME ( 9, 32, 34.00000000000000000, #72 ) ;
#55 = DIRECTION ( 'NONE',  ( -3.491481338843133355E-15, 1.224646799147353207E-16, -1.000000000000000000 ) ) ;
#56 = DIRECTION ( 'NONE',  ( -3.491481338843133355E-15, 1.224646799147353207E-16, -1.000000000000000000 ) ) ;
#57 = PRODUCT ( '200115', '200115', '', ( #250 ) ) ;
#58 = APPROVAL_PERSON_ORGANIZATION ( #232, #139, #256 ) ;
#59 = FACE_OUTER_BOUND ( 'NONE', #119, .T. ) ;
#60 = VERTEX_POINT ( 'NONE', #16 ) ;
#61 = FACE_BOUND ( 'NONE', #241, .T. ) ;
#62 = CIRCLE ( 'NONE', #156, 0.8341624327025946029 ) ;
#63 = VERTEX_POINT ( 'NONE', #230 ) ;
#64 = FACE_OUTER_BOUND ( 'NONE', #257, .T. ) ;
#65 = PLANE ( 'NONE',  #94 ) ;
#66 = PERSON_AND_ORGANIZATION ( #112, #92 ) ;
#67 = ADVANCED_FACE ( 'NONE', ( #136, #86 ), #299, .F. ) ;
#68 = ADVANCED_BREP_SHAPE_REPRESENTATION ( '200115', ( #222, #17, #185 ), #204 ) ;
#69 = PERSON_AND_ORGANIZATION_ROLE ( 'creator' ) ;
#70 = ORIENTED_EDGE ( 'NONE', *, *, #129, .T. ) ;
#71 = AXIS2_PLACEMENT_3D ( 'NONE', #296, #270, #272 ) ;
#72 = COORDINATED_UNIVERSAL_TIME_OFFSET ( 1, 0, .AHEAD. ) ;
#73 = SECURITY_CLASSIFICATION ( '', '', #280 ) ;
#74 = DATE_AND_TIME ( #141, #125 ) ;
#75 = EDGE_LOOP ( 'NONE', ( #215 ) ) ;
#76 = EDGE_CURVE ( 'NONE', #178, #178, #282, .T. ) ;
#77 = ORIENTED_EDGE ( 'NONE', *, *, #133, .F. ) ;
#78 = CIRCLE ( 'NONE', #184, 0.9785000000000000364 ) ;
#79 = EDGE_LOOP ( 'NONE', ( #274 ) ) ;
#80 = APPROVAL_PERSON_ORGANIZATION ( #66, #260, #137 ) ;
#81 = ORIENTED_EDGE ( 'NONE', *, *, #227, .T. ) ;
#82 = CARTESIAN_POINT ( 'NONE',  ( 8.728703347107829444E-16, -3.061616997868381785E-17, 0.2499999999999998890 ) ) ;
#83 = DIRECTION ( 'NONE',  ( 4.275831445896959482E-31, 1.000000000000000000, 1.224646799147353207E-16 ) ) ;
#84 = AXIS2_PLACEMENT_3D ( 'NONE', #132, #224, #36 ) ;
#85 = CARTESIAN_POINT ( 'NONE',  ( 2.793185071074506684E-14, 0.9784999999999989262, 8.000000000000000000 ) ) ;
#86 = FACE_OUTER_BOUND ( 'NONE', #168, .T. ) ;
#87 = VERTEX_POINT ( 'NONE', #233 ) ;
#88 = CYLINDRICAL_SURFACE ( 'NONE', #261, 1.499999999999999112 ) ;
#89 = CARTESIAN_POINT ( 'NONE',  ( 6.284666409917638777E-14, 0.8249999999999980682, 17.99999999999999645 ) ) ;
#90 = CC_DESIGN_DATE_AND_TIME_ASSIGNMENT ( #231, #143, ( #73 ) ) ;
#91 = FACE_BOUND ( 'NONE', #239, .T. ) ;
#92 = ORGANIZATION ( 'UNSPECIFIED', 'UNSPECIFIED', '' ) ;
#93 = DIRECTION ( 'NONE',  ( 0.0000000000000000000, 1.000000000000000000, 0.0000000000000000000 ) ) ;
#94 = AXIS2_PLACEMENT_3D ( 'NONE', #158, #253, #44 ) ;
#95 = EDGE_LOOP ( 'NONE', ( #122 ) ) ;
#96 = DATE_AND_TIME ( #258, #161 ) ;
#97 = COORDINATED_UNIVERSAL_TIME_OFFSET ( 1, 0, .AHEAD. ) ;
#98 = ORIENTED_EDGE ( 'NONE', *, *, #219, .F. ) ;
#99 = CIRCLE ( 'NONE', #245, 0.9784999999999989262 ) ;
#100 = CC_DESIGN_PERSON_AND_ORGANIZATION_ASSIGNMENT ( #186, #23, ( #248 ) ) ;
#101 = EDGE_LOOP ( 'NONE', ( #7 ) ) ;
#102 = ORIENTED_EDGE ( 'NONE', *, *, #121, .T. ) ;
#103 = CARTESIAN_POINT ( 'NONE',  ( 7.682338705364703204E-14, -2.694601686918367072E-15, 22.00309255529393226 ) ) ;
#104 = FACE_OUTER_BOUND ( 'NONE', #79, .T. ) ;
#105 = EDGE_CURVE ( 'NONE', #269, #269, #62, .T. ) ;
#106 = AXIS2_PLACEMENT_3D ( 'NONE', #103, #290, #229 ) ;
#107 = CC_DESIGN_APPROVAL ( #228, ( #73 ) ) ;
#108 = CARTESIAN_POINT ( 'NONE',  ( 0.0000000000000000000, 0.0000000000000000000, 0.0000000000000000000 ) ) ;
#109 = CARTESIAN_POINT ( 'NONE',  ( 0.0000000000000000000, 0.0000000000000000000, 0.0000000000000000000 ) ) ;
#110 = FACE_OUTER_BOUND ( 'NONE', #75, .T. ) ;
#111 = CARTESIAN_POINT ( 'NONE',  ( -3.566737960735659553E-31, 1.251043268774729762E-32, -1.021554353178201898E-16 ) ) ;
#112 = PERSON ( 'UNSPECIFIED', 'UNSPECIFIED', 'UNSPECIFIED', ('UNSPECIFIED'), ('UNSPECIFIED'), ('UNSPECIFIED') ) ;
#113 = VERTEX_POINT ( 'NONE', #211 ) ;
#114 = FACE_OUTER_BOUND ( 'NONE', #124, .T. ) ;
#115 = CIRCLE ( 'NONE', #49, 1.500000000000001554 ) ;
#116 = SHAPE_DEFINITION_REPRESENTATION ( #198, #68 ) ;
#117 = CIRCLE ( 'NONE', #293, 0.8250000000000001776 ) ;
#118 = PERSON_AND_ORGANIZATION ( #112, #92 ) ;
#119 = EDGE_LOOP ( 'NONE', ( #259 ) ) ;
#120 = CALENDAR_DATE ( 2021, 30, 11 ) ;
#121 = EDGE_CURVE ( 'NONE', #60, #60, #237, .T. ) ;
#122 = ORIENTED_EDGE ( 'NONE', *, *, #11, .F. ) ;
#123 = UNCERTAINTY_MEASURE_WITH_UNIT (LENGTH_MEASURE( 1.000000000000000082E-05 ), #205, 'distance_accuracy_value', 'NONE');
#124 = EDGE_LOOP ( 'NONE', ( #81 ) ) ;
#125 = LOCAL_TIME ( 9, 32, 34.00000000000000000, #278 ) ;
#126 = DIRECTION ( 'NONE',  ( 0.0000000000000000000, 1.000000000000000000, 0.0000000000000000000 ) ) ;
#127 = ORIENTED_EDGE ( 'NONE', *, *, #40, .T. ) ;
#128 = DIRECTION ( 'NONE',  ( 0.0000000000000000000, 1.000000000000000000, 0.0000000000000000000 ) ) ;
#129 = EDGE_CURVE ( 'NONE', #113, #113, #78, .T. ) ;
#130 = FACE_OUTER_BOUND ( 'NONE', #235, .T. ) ;
#131 = CARTESIAN_POINT ( 'NONE',  ( 2.793185071074506684E-14, -9.797174393178825657E-16, 8.000000000000000000 ) ) ;
#132 = CARTESIAN_POINT ( 'NONE',  ( 8.728703347107829444E-16, -3.061616997868381785E-17, 0.2499999999999998890 ) ) ;
#133 = EDGE_CURVE ( 'NONE', #87, #87, #203, .T. ) ;
#134 = FACE_OUTER_BOUND ( 'NONE', #283, .T. ) ;
#135 = PLANE ( 'NONE',  #303 ) ;
#136 = FACE_OUTER_BOUND ( 'NONE', #145, .T. ) ;
#137 = APPROVAL_ROLE ( '' ) ;
#138 = CARTESIAN_POINT ( 'NONE',  ( 4.276423536147513034E-47, 0.8341624327025946029, 0.0000000000000000000 ) ) ;
#139 = APPROVAL ( #254, 'UNSPECIFIED' ) ;
#140 = AXIS2_PLACEMENT_3D ( 'NONE', #176, #244, #179 ) ;
#141 = CALENDAR_DATE ( 2021, 30, 11 ) ;
#142 = CC_DESIGN_PERSON_AND_ORGANIZATION_ASSIGNMENT ( #21, #148, ( #73 ) ) ;
#143 = DATE_TIME_ROLE ( 'classification_date' ) ;
#144 = PERSON_AND_ORGANIZATION_ROLE ( 'design_supplier' ) ;
#145 = EDGE_LOOP ( 'NONE', ( #164 ) ) ;
#146 = PRODUCT_DEFINITION_FORMATION_WITH_SPECIFIED_SOURCE ( 'ANY', '', #57, .NOT_KNOWN. ) ;
#147 = EDGE_LOOP ( 'NONE', ( #163 ) ) ;
#148 = PERSON_AND_ORGANIZATION_ROLE ( 'classification_officer' ) ;
#149 = CIRCLE ( 'NONE', #106, 1.499999999999996669 ) ;
#150 = CARTESIAN_POINT ( 'NONE',  ( 0.0000000000000000000, 0.0000000000000000000, 0.0000000000000000000 ) ) ;
#151 = CLOSED_SHELL ( 'NONE', ( #301, #298, #28, #4 ) ) ;
#152 = ADVANCED_FACE ( 'NONE', ( #223, #212 ), #53, .T. ) ;
#153 = CARTESIAN_POINT ( 'NONE',  ( 0.0000000000000000000, 0.0000000000000000000, 0.0000000000000000000 ) ) ;
#154 = DIRECTION ( 'NONE',  ( 0.0000000000000000000, 1.000000000000000000, 0.0000000000000000000 ) ) ;
#155 = FACE_OUTER_BOUND ( 'NONE', #281, .T. ) ;
#156 = AXIS2_PLACEMENT_3D ( 'NONE', #111, #173, #83 ) ;
#157 = DIRECTION ( 'NONE',  ( 0.0000000000000000000, 1.000000000000000000, 0.0000000000000000000 ) ) ;
#158 = CARTESIAN_POINT ( 'NONE',  ( 1.745740669421566678E-13, 8.998558695971067645E-33, 50.00000000000000000 ) ) ;
#159 = APPROVAL_STATUS ( 'not_yet_approved' ) ;
#160 = AXIS2_PLACEMENT_3D ( 'NONE', #14, #286, #242 ) ;
#161 = LOCAL_TIME ( 9, 32, 34.00000000000000000, #183 ) ;
#162 = DATE_TIME_ROLE ( 'creation_date' ) ;
#163 = ORIENTED_EDGE ( 'NONE', *, *, #76, .T. ) ;
#164 = ORIENTED_EDGE ( 'NONE', *, *, #52, .F. ) ;
#165 = AXIS2_PLACEMENT_3D ( 'NONE', #210, #55, #157 ) ;
#166 = CC_DESIGN_APPROVAL ( #260, ( #248 ) ) ;
#167 = ORIENTED_EDGE ( 'NONE', *, *, #52, .T. ) ;
#168 = EDGE_LOOP ( 'NONE', ( #102 ) ) ;
#169 = DIRECTION ( 'NONE',  ( -4.275831445896958607E-31, -1.000000000000000000, -1.224646799147353207E-16 ) ) ;
#170 = DIRECTION ( 'NONE',  ( -3.491481338843133355E-15, 1.224646799147353207E-16, -1.000000000000000000 ) ) ;
#171 = PRODUCT_RELATED_PRODUCT_CATEGORY ( 'detail', '', ( #57 ) ) ;
#172 = CONICAL_SURFACE ( 'NONE', #84, 0.9784999999999989262, 0.5235987755982923764 ) ;
#173 = DIRECTION ( 'NONE',  ( -3.491481338843133355E-15, 1.224646799147353207E-16, -1.000000000000000000 ) ) ;
#174 = DIRECTION ( 'NONE',  ( 3.491481338843133355E-15, -1.224646799147353207E-16, 1.000000000000000000 ) ) ;
#175 = CARTESIAN_POINT ( 'NONE',  ( 6.284666409917640040E-14, -2.168404344971008868E-15, 18.00000000000000000 ) ) ;
#176 = CARTESIAN_POINT ( 'NONE',  ( 7.682338705364703204E-14, -2.694601686918367072E-15, 22.00309255529393226 ) ) ;
#177 = AXIS2_PLACEMENT_3D ( 'NONE', #297, #10, #93 ) ;
#178 = VERTEX_POINT ( 'NONE', #42 ) ;
#179 = DIRECTION ( 'NONE',  ( 0.0000000000000000000, -1.000000000000000000, 0.0000000000000000000 ) ) ;
#180 = PERSON_AND_ORGANIZATION ( #112, #92 ) ;
#181 = FACE_OUTER_BOUND ( 'NONE', #24, .T. ) ;
#182 =( NAMED_UNIT ( * ) SI_UNIT ( $, .STERADIAN. ) SOLID_ANGLE_UNIT ( ) );
#183 = COORDINATED_UNIVERSAL_TIME_OFFSET ( 1, 0, .AHEAD. ) ;
#184 = AXIS2_PLACEMENT_3D ( 'NONE', #131, #30, #43 ) ;
#185 = AXIS2_PLACEMENT_3D ( 'NONE', #109, #35, #268 ) ;
#186 = PERSON_AND_ORGANIZATION ( #112, #92 ) ;
#187 = CARTESIAN_POINT ( 'NONE',  ( 1.735266225405037467E-13, -6.086494591762345225E-15, 49.70000000000000284 ) ) ;
#188 = APPROVAL_DATE_TIME ( #96, #228 ) ;
#189 = EDGE_LOOP ( 'NONE', ( #77 ) ) ;
#190 = APPLICATION_CONTEXT ( 'configuration controlled 3d designs of mechanical parts and assemblies' ) ;
#191 = CC_DESIGN_DATE_AND_TIME_ASSIGNMENT ( #74, #162, ( #248 ) ) ;
#192 = ORIENTED_EDGE ( 'NONE', *, *, #129, .F. ) ;
#193 = CIRCLE ( 'NONE', #45, 0.9785000000000000364 ) ;
#194 = DIRECTION ( 'NONE',  ( 3.491481338843133355E-15, -1.224646799147353207E-16, 1.000000000000000000 ) ) ;
#195 = DIRECTION ( 'NONE',  ( 3.491481338843133355E-15, -1.224646799147353207E-16, 1.000000000000000000 ) ) ;
#196 = CC_DESIGN_PERSON_AND_ORGANIZATION_ASSIGNMENT ( #214, #144, ( #146 ) ) ;
#197 = CARTESIAN_POINT ( 'NONE',  ( 8.728703347107833388E-16, 0.9784999999999989262, 0.2500000000000000000 ) ) ;
#198 = PRODUCT_DEFINITION_SHAPE ( 'NONE', 'NONE',  #248 ) ;
#199 = CARTESIAN_POINT ( 'NONE',  ( 6.284666409917638777E-14, -2.204364238465235033E-15, 17.99999999999999645 ) ) ;
#200 = DIRECTION ( 'NONE',  ( -3.491481338843133355E-15, 1.224646799147353207E-16, -1.000000000000000000 ) ) ;
#201 = ADVANCED_FACE ( 'NONE', ( #181 ), #65, .F. ) ;
#202 = DIRECTION ( 'NONE',  ( -3.491481338843133355E-15, 1.224646799147353207E-16, -1.000000000000000000 ) ) ;
#203 = CIRCLE ( 'NONE', #71, 0.8250000000000002887 ) ;
#204 =( GEOMETRIC_REPRESENTATION_CONTEXT ( 3 ) GLOBAL_UNCERTAINTY_ASSIGNED_CONTEXT ( ( #123 ) ) GLOBAL_UNIT_ASSIGNED_CONTEXT ( ( #205, #18, #182 ) ) REPRESENTATION_CONTEXT ( 'NONE', 'WORKASPACE' ) );
#205 =( LENGTH_UNIT ( ) NAMED_UNIT ( * ) SI_UNIT ( .MILLI., .METRE. ) );
#206 = DIRECTION ( 'NONE',  ( 3.936494520975448210E-31, 1.000000000000000000, 1.108024703613189232E-16 ) ) ;
#207 = APPLICATION_PROTOCOL_DEFINITION ( 'international standard', 'config_control_design', 1994, #285 ) ;
#208 = ADVANCED_FACE ( 'NONE', ( #220 ), #8, .F. ) ;
#209 = DIRECTION ( 'NONE',  ( -4.275831445896958607E-31, -1.000000000000000000, -1.224646799147353207E-16 ) ) ;
#210 = CARTESIAN_POINT ( 'NONE',  ( 6.405924284287273902E-14, -2.246895775456748746E-15, 18.34729635533384240 ) ) ;
#211 = CARTESIAN_POINT ( 'NONE',  ( 2.793185071074506684E-14, 0.9784999999999989262, 8.000000000000000000 ) ) ;
#212 = FACE_BOUND ( 'NONE', #147, .T. ) ;
#213 = AXIS2_PLACEMENT_3D ( 'NONE', #150, #221, #38 ) ;
#214 = PERSON_AND_ORGANIZATION ( #112, #92 ) ;
#215 = ORIENTED_EDGE ( 'NONE', *, *, #219, .T. ) ;
#216 = CALENDAR_DATE ( 2021, 30, 11 ) ;
#217 = EDGE_LOOP ( 'NONE', ( #70 ) ) ;
#218 = ADVANCED_FACE ( 'NONE', ( #262, #130 ), #19, .T. ) ;
#219 = EDGE_CURVE ( 'NONE', #33, #33, #99, .T. ) ;
#220 = FACE_OUTER_BOUND ( 'NONE', #217, .T. ) ;
#221 = DIRECTION ( 'NONE',  ( -3.491481338843133355E-15, 1.224646799147353207E-16, -1.000000000000000000 ) ) ;
#222 = MANIFOLD_SOLID_BREP ( 'Corps-Déplacer/Copier1[1]', #288 ) ;
#223 = FACE_OUTER_BOUND ( 'NONE', #95, .T. ) ;
#224 = DIRECTION ( 'NONE',  ( 3.491481338843133355E-15, -1.224646799147353207E-16, 1.000000000000000000 ) ) ;
#225 = CARTESIAN_POINT ( 'NONE',  ( 1.735266225405037467E-13, 1.499999999999995559, 49.70000000000000284 ) ) ;
#226 = DIRECTION ( 'NONE',  ( -3.491481338843133355E-15, 1.224646799147353207E-16, -1.000000000000000000 ) ) ;
#227 = EDGE_CURVE ( 'NONE', #287, #287, #193, .T. ) ;
#228 = APPROVAL ( #20, 'UNSPECIFIED' ) ;
#229 = DIRECTION ( 'NONE',  ( 0.0000000000000000000, 1.000000000000000000, 0.0000000000000000000 ) ) ;
#230 = CARTESIAN_POINT ( 'NONE',  ( 7.682338705364703204E-14, 1.499999999999994005, 22.00309255529393226 ) ) ;
#231 = DATE_AND_TIME ( #234, #39 ) ;
#232 = PERSON_AND_ORGANIZATION ( #112, #92 ) ;
#233 = CARTESIAN_POINT ( 'NONE',  ( 2.886013015238223984E-14, 0.8249999999999992895, 8.265869798961823278 ) ) ;
#234 = CALENDAR_DATE ( 2021, 30, 11 ) ;
#235 = EDGE_LOOP ( 'NONE', ( #192 ) ) ;
#236 = ADVANCED_FACE ( 'NONE', ( #134, #249 ), #13, .T. ) ;
#237 = CIRCLE ( 'NONE', #165, 0.8553844939755800292 ) ;
#238 = CC_DESIGN_APPROVAL ( #139, ( #146 ) ) ;
#239 = EDGE_LOOP ( 'NONE', ( #279 ) ) ;
#240 = CARTESIAN_POINT ( 'NONE',  ( 2.793185071074506684E-14, -9.797174393178825657E-16, 8.000000000000000000 ) ) ;
#241 = EDGE_LOOP ( 'NONE', ( #25 ) ) ;
#242 = DIRECTION ( 'NONE',  ( 0.0000000000000000000, 1.000000000000000000, 0.0000000000000000000 ) ) ;
#243 = CC_DESIGN_PERSON_AND_ORGANIZATION_ASSIGNMENT ( #180, #15, ( #57 ) ) ;
#244 = DIRECTION ( 'NONE',  ( 3.491481338843133355E-15, -1.224646799147353207E-16, 1.000000000000000000 ) ) ;
#245 = AXIS2_PLACEMENT_3D ( 'NONE', #82, #56, #206 ) ;
#246 = CYLINDRICAL_SURFACE ( 'NONE', #213, 0.9784999999999993703 ) ;
#247 = VERTEX_POINT ( 'NONE', #225 ) ;
#248 = PRODUCT_DEFINITION ( 'UNKNOWN', '', #146, #6 ) ;
#249 = FACE_OUTER_BOUND ( 'NONE', #189, .T. ) ;
#250 = MECHANICAL_CONTEXT ( 'NONE', #285, 'mechanical' ) ;
#251 = AXIS2_PLACEMENT_3D ( 'NONE', #27, #194, #169 ) ;
#252 = VERTEX_POINT ( 'NONE', #89 ) ;
#253 = DIRECTION ( 'NONE',  ( -3.491481338843133355E-15, 1.224646799147353207E-16, -1.000000000000000000 ) ) ;
#254 = APPROVAL_STATUS ( 'not_yet_approved' ) ;
#255 = CC_DESIGN_SECURITY_CLASSIFICATION ( #73, ( #146 ) ) ;
#256 = APPROVAL_ROLE ( '' ) ;
#257 = EDGE_LOOP ( 'NONE', ( #98 ) ) ;
#258 = CALENDAR_DATE ( 2021, 30, 11 ) ;
#259 = ORIENTED_EDGE ( 'NONE', *, *, #40, .F. ) ;
#260 = APPROVAL ( #159, 'UNSPECIFIED' ) ;
#261 = AXIS2_PLACEMENT_3D ( 'NONE', #153, #226, #32 ) ;
#262 = FACE_BOUND ( 'NONE', #48, .T. ) ;
#263 = ADVANCED_FACE ( 'NONE', ( #59, #104 ), #88, .T. ) ;
#264 = DIRECTION ( 'NONE',  ( -3.491481338843133355E-15, 1.224646799147353207E-16, -1.000000000000000000 ) ) ;
#265 = DIRECTION ( 'NONE',  ( 4.275831445896958607E-31, 1.000000000000000000, 1.224646799147353207E-16 ) ) ;
#266 = FACE_OUTER_BOUND ( 'NONE', #2, .T. ) ;
#267 = CONICAL_SURFACE ( 'NONE', #140, 1.499999999999996669, 0.1745329251994261477 ) ;
#268 = DIRECTION ( 'NONE',  ( 1.000000000000000000, 0.0000000000000000000, 0.0000000000000000000 ) ) ;
#269 = VERTEX_POINT ( 'NONE', #138 ) ;
#270 = DIRECTION ( 'NONE',  ( -3.491481338843133355E-15, 1.224646799147353207E-16, -1.000000000000000000 ) ) ;
#271 = APPROVAL_PERSON_ORGANIZATION ( #1, #228, #300 ) ;
#272 = DIRECTION ( 'NONE',  ( 0.0000000000000000000, 1.000000000000000000, 0.0000000000000000000 ) ) ;
#273 = COORDINATED_UNIVERSAL_TIME_OFFSET ( 1, 0, .AHEAD. ) ;
#274 = ORIENTED_EDGE ( 'NONE', *, *, #11, .T. ) ;
#275 = AXIS2_PLACEMENT_3D ( 'NONE', #108, #295, #294 ) ;
#276 = LOCAL_TIME ( 9, 32, 34.00000000000000000, #273 ) ;
#277 = ADVANCED_FACE ( 'NONE', ( #91, #155 ), #267, .T. ) ;
#278 = COORDINATED_UNIVERSAL_TIME_OFFSET ( 1, 0, .AHEAD. ) ;
#279 = ORIENTED_EDGE ( 'NONE', *, *, #121, .F. ) ;
#280 = SECURITY_CLASSIFICATION_LEVEL ( 'unclassified' ) ;
#281 = EDGE_LOOP ( 'NONE', ( #127 ) ) ;
#282 = CIRCLE ( 'NONE', #160, 1.200000000000001732 ) ;
#283 = EDGE_LOOP ( 'NONE', ( #167 ) ) ;
#284 = DIRECTION ( 'NONE',  ( -4.275831445896958607E-31, -1.000000000000000000, -1.224646799147353207E-16 ) ) ;
#285 = APPLICATION_CONTEXT ( 'configuration controlled 3d designs of mechanical parts and assemblies' ) ;
#286 = DIRECTION ( 'NONE',  ( -3.491481338843133355E-15, 1.224646799147353207E-16, -1.000000000000000000 ) ) ;
#287 = VERTEX_POINT ( 'NONE', #85 ) ;
#288 = CLOSED_SHELL ( 'NONE', ( #208, #218, #236, #67, #277, #263, #152, #201 ) ) ;
#289 = DIRECTION ( 'NONE',  ( 0.0000000000000000000, 1.000000000000000000, 0.0000000000000000000 ) ) ;
#290 = DIRECTION ( 'NONE',  ( -3.491481338843133355E-15, 1.224646799147353207E-16, -1.000000000000000000 ) ) ;
#291 = CC_DESIGN_PERSON_AND_ORGANIZATION_ASSIGNMENT ( #118, #69, ( #146 ) ) ;
#292 = CARTESIAN_POINT ( 'NONE',  ( -1.783368980367829776E-31, 6.255216343873648811E-33, -5.107771765891009489E-17 ) ) ;
#293 = AXIS2_PLACEMENT_3D ( 'NONE', #199, #200, #289 ) ;
#294 = DIRECTION ( 'NONE',  ( 4.275831445896958607E-31, 1.000000000000000000, 1.224646799147353207E-16 ) ) ;
#295 = DIRECTION ( 'NONE',  ( -3.491481338843133355E-15, 1.224646799147353207E-16, -1.000000000000000000 ) ) ;
#296 = CARTESIAN_POINT ( 'NONE',  ( 2.886013015238223984E-14, -1.012277099146737164E-15, 8.265869798961823278 ) ) ;
#297 = CARTESIAN_POINT ( 'NONE',  ( 1.745740669421566678E-13, -6.123233995736766085E-15, 50.00000000000000000 ) ) ;
#298 = ADVANCED_FACE ( 'NONE', ( #61, #110 ), #172, .T. ) ;
#299 = TOROIDAL_SURFACE ( 'NONE', #12, 2.824999999999999734, 2.000000000000000000 ) ;
#300 = APPROVAL_ROLE ( '' ) ;
#301 = ADVANCED_FACE ( 'NONE', ( #266 ), #135, .F. ) ;
#302 = PLANE ( 'NONE',  #31 ) ;
#303 = AXIS2_PLACEMENT_3D ( 'NONE', #292, #174, #209 ) ;
ENDSEC;
END-ISO-10303-21;
