ISO-10303-21;
HEADER;
FILE_DESCRIPTION (( 'STEP AP203' ),
    '1' );
FILE_NAME ('200114.step',
    '2021-11-30T08:32:33',
    ( '' ),
    ( '' ),
    'SwSTEP 2.0',
    'SolidWorks 2019',
    '' );
FILE_SCHEMA (( 'CONFIG_CONTROL_DESIGN' ));
ENDSEC;

DATA;
#1 = FACE_OUTER_BOUND ( 'NONE', #102, .T. ) ;
#2 = PERSON_AND_ORGANIZATION ( #249, #151 ) ;
#3 = DIRECTION ( 'NONE',  ( 3.491481338843133355E-15, -1.224646799147353207E-16, 1.000000000000000000 ) ) ;
#4 = PLANE ( 'NONE',  #80 ) ;
#5 = DIRECTION ( 'NONE',  ( 0.0000000000000000000, 1.000000000000000000, 0.0000000000000000000 ) ) ;
#6 = CC_DESIGN_DATE_AND_TIME_ASSIGNMENT ( #116, #217, ( #30 ) ) ;
#7 = DATE_AND_TIME ( #202, #303 ) ;
#8 = PRODUCT_DEFINITION_SHAPE ( 'NONE', 'NONE',  #30 ) ;
#9 = DIRECTION ( 'NONE',  ( 3.491481338843133355E-15, -1.224646799147353207E-16, 1.000000000000000000 ) ) ;
#10 = ADVANCED_FACE ( 'NONE', ( #294, #265 ), #160, .T. ) ;
#11 = CARTESIAN_POINT ( 'NONE',  ( 1.745740669421566678E-13, -6.123233995736766085E-15, 50.00000000000000000 ) ) ;
#12 = COORDINATED_UNIVERSAL_TIME_OFFSET ( 1, 0, .AHEAD. ) ;
#13 = EDGE_CURVE ( 'NONE', #255, #255, #275, .T. ) ;
#14 = CYLINDRICAL_SURFACE ( 'NONE', #257, 0.8500000000000003109 ) ;
#15 = FACE_OUTER_BOUND ( 'NONE', #76, .T. ) ;
#16 = FACE_OUTER_BOUND ( 'NONE', #187, .T. ) ;
#17 = EDGE_CURVE ( 'NONE', #281, #281, #71, .T. ) ;
#18 = AXIS2_PLACEMENT_3D ( 'NONE', #33, #9, #177 ) ;
#19 = APPROVAL_PERSON_ORGANIZATION ( #2, #157, #22 ) ;
#20 = DIRECTION ( 'NONE',  ( -3.491481338843133355E-15, 1.224646799147353207E-16, -1.000000000000000000 ) ) ;
#21 = DESIGN_CONTEXT ( 'detailed design', #34, 'design' ) ;
#22 = APPROVAL_ROLE ( '' ) ;
#23 = CARTESIAN_POINT ( 'NONE',  ( 5.935518276033326704E-14, -2.081899558550500280E-15, 17.00000000000000000 ) ) ;
#24 = ORIENTED_EDGE ( 'NONE', *, *, #164, .F. ) ;
#25 = VERTEX_POINT ( 'NONE', #188 ) ;
#26 = ORIENTED_EDGE ( 'NONE', *, *, #17, .F. ) ;
#27 = APPROVAL_PERSON_ORGANIZATION ( #298, #230, #240 ) ;
#28 = CARTESIAN_POINT ( 'NONE',  ( 5.935518276033326704E-14, 0.8499999999999983125, 17.00000000000000000 ) ) ;
#29 = EDGE_LOOP ( 'NONE', ( #195 ) ) ;
#30 = PRODUCT_DEFINITION ( 'UNKNOWN', '', #32, #21 ) ;
#31 = PERSON_AND_ORGANIZATION_ROLE ( 'classification_officer' ) ;
#32 = PRODUCT_DEFINITION_FORMATION_WITH_SPECIFIED_SOURCE ( 'ANY', '', #289, .NOT_KNOWN. ) ;
#33 = CARTESIAN_POINT ( 'NONE',  ( -1.729921087294117772E-31, 6.067746371040917294E-33, -4.954690915997590677E-17 ) ) ;
#34 = APPLICATION_CONTEXT ( 'configuration controlled 3d designs of mechanical parts and assemblies' ) ;
#35 = DIRECTION ( 'NONE',  ( 0.0000000000000000000, 1.000000000000000000, 0.0000000000000000000 ) ) ;
#36 = AXIS2_PLACEMENT_3D ( 'NONE', #118, #299, #193 ) ;
#37 = APPROVAL_DATE_TIME ( #198, #99 ) ;
#38 = CALENDAR_DATE ( 2021, 30, 11 ) ;
#39 = FACE_OUTER_BOUND ( 'NONE', #130, .T. ) ;
#40 = APPROVAL_ROLE ( '' ) ;
#41 = DIRECTION ( 'NONE',  ( -3.491481338843133355E-15, 1.224646799147353207E-16, -1.000000000000000000 ) ) ;
#42 = TOROIDAL_SURFACE ( 'NONE', #178, 2.850000000000000533, 2.000000000000000888 ) ;
#43 = CARTESIAN_POINT ( 'NONE',  ( 8.728703347107829444E-16, -3.061616997868381785E-17, 0.2499999999999998890 ) ) ;
#44 = ADVANCED_FACE ( 'NONE', ( #54, #132 ), #56, .T. ) ;
#45 = DIRECTION ( 'NONE',  ( -3.491481338843133355E-15, 1.224646799147353207E-16, -1.000000000000000000 ) ) ;
#46 = CARTESIAN_POINT ( 'NONE',  ( 7.283687634879098965E-14, 1.499999999999994005, 20.86131050980348078 ) ) ;
#47 = CARTESIAN_POINT ( 'NONE',  ( 1.745740669421566678E-13, -6.123233995736766085E-15, 50.00000000000000000 ) ) ;
#48 = APPROVAL_STATUS ( 'not_yet_approved' ) ;
#49 = ORIENTED_EDGE ( 'NONE', *, *, #211, .T. ) ;
#50 = AXIS2_PLACEMENT_3D ( 'NONE', #161, #45, #228 ) ;
#51 = AXIS2_PLACEMENT_3D ( 'NONE', #125, #194, #285 ) ;
#52 = ADVANCED_FACE ( 'NONE', ( #244 ), #134, .T. ) ;
#53 = APPROVAL_STATUS ( 'not_yet_approved' ) ;
#54 = FACE_OUTER_BOUND ( 'NONE', #122, .T. ) ;
#55 = DIRECTION ( 'NONE',  ( 3.491481338843133355E-15, -1.224646799147353207E-16, 1.000000000000000000 ) ) ;
#56 = CYLINDRICAL_SURFACE ( 'NONE', #232, 1.499999999999999112 ) ;
#57 = PLANE ( 'NONE',  #18 ) ;
#58 = ORIENTED_EDGE ( 'NONE', *, *, #266, .T. ) ;
#59 = AXIS2_PLACEMENT_3D ( 'NONE', #170, #3, #216 ) ;
#60 = DATE_TIME_ROLE ( 'classification_date' ) ;
#61 = CC_DESIGN_PERSON_AND_ORGANIZATION_ASSIGNMENT ( #203, #82, ( #30 ) ) ;
#62 = DIRECTION ( 'NONE',  ( -3.491481338843133355E-15, 1.224646799147353207E-16, -1.000000000000000000 ) ) ;
#63 = CARTESIAN_POINT ( 'NONE',  ( 1.735266225405037467E-13, 1.499999999999995559, 49.70000000000000284 ) ) ;
#64 = PLANE ( 'NONE',  #85 ) ;
#65 = MANIFOLD_SOLID_BREP ( 'Corps-Déplacer/Copier1[1]', #256 ) ;
#66 = DIRECTION ( 'NONE',  ( 3.491481338843133355E-15, -1.224646799147353207E-16, 1.000000000000000000 ) ) ;
#67 = PERSON_AND_ORGANIZATION_ROLE ( 'design_owner' ) ;
#68 = DIRECTION ( 'NONE',  ( 3.491481338843133355E-15, -1.224646799147353207E-16, 1.000000000000000000 ) ) ;
#69 = ADVANCED_FACE ( 'NONE', ( #242 ), #57, .F. ) ;
#70 = ORIENTED_EDGE ( 'NONE', *, *, #164, .T. ) ;
#71 = CIRCLE ( 'NONE', #215, 1.200000000000001732 ) ;
#72 = DATE_AND_TIME ( #212, #108 ) ;
#73 = CARTESIAN_POINT ( 'NONE',  ( 1.745740669421566678E-13, 1.199999999999995515, 50.00000000000000000 ) ) ;
#74 = DIRECTION ( 'NONE',  ( 0.0000000000000000000, 0.0000000000000000000, 1.000000000000000000 ) ) ;
#75 = DIRECTION ( 'NONE',  ( -3.491481338843133355E-15, 1.224646799147353207E-16, -1.000000000000000000 ) ) ;
#76 = EDGE_LOOP ( 'NONE', ( #158 ) ) ;
#77 = CARTESIAN_POINT ( 'NONE',  ( 0.0000000000000000000, 0.8091624327025946917, 0.0000000000000000000 ) ) ;
#78 = ADVANCED_FACE ( 'NONE', ( #133, #200 ), #226, .T. ) ;
#79 = CIRCLE ( 'NONE', #172, 0.8500000000000004219 ) ;
#80 = AXIS2_PLACEMENT_3D ( 'NONE', #209, #186, #101 ) ;
#81 = FACE_OUTER_BOUND ( 'NONE', #113, .T. ) ;
#82 = PERSON_AND_ORGANIZATION_ROLE ( 'creator' ) ;
#83 = ORIENTED_EDGE ( 'NONE', *, *, #17, .T. ) ;
#84 = PERSON_AND_ORGANIZATION ( #249, #151 ) ;
#85 = AXIS2_PLACEMENT_3D ( 'NONE', #163, #68, #269 ) ;
#86 = DIRECTION ( 'NONE',  ( -4.275831445896958607E-31, -1.000000000000000000, -1.224646799147353207E-16 ) ) ;
#87 = ORIENTED_EDGE ( 'NONE', *, *, #196, .F. ) ;
#88 = CC_DESIGN_PERSON_AND_ORGANIZATION_ASSIGNMENT ( #97, #67, ( #289 ) ) ;
#89 = DIRECTION ( 'NONE',  ( 0.0000000000000000000, 1.000000000000000000, 0.0000000000000000000 ) ) ;
#90 = ORIENTED_EDGE ( 'NONE', *, *, #13, .T. ) ;
#91 = COORDINATED_UNIVERSAL_TIME_OFFSET ( 1, 0, .AHEAD. ) ;
#92 = DIRECTION ( 'NONE',  ( -4.039706228394835948E-31, -1.000000000000000000, -1.137076216555328436E-16 ) ) ;
#93 = EDGE_LOOP ( 'NONE', ( #300 ) ) ;
#94 = EDGE_CURVE ( 'NONE', #103, #103, #263, .T. ) ;
#95 = CLOSED_SHELL ( 'NONE', ( #69, #78, #207, #52 ) ) ;
#96 = AXIS2_PLACEMENT_3D ( 'NONE', #224, #223, #89 ) ;
#97 = PERSON_AND_ORGANIZATION ( #249, #151 ) ;
#98 = DIRECTION ( 'NONE',  ( 4.275831445896958607E-31, 1.000000000000000000, 1.224646799147353207E-16 ) ) ;
#99 = APPROVAL ( #243, 'UNSPECIFIED' ) ;
#100 = VERTEX_POINT ( 'NONE', #77 ) ;
#101 = DIRECTION ( 'NONE',  ( 4.275831445896958607E-31, 1.000000000000000000, 1.224646799147353207E-16 ) ) ;
#102 = EDGE_LOOP ( 'NONE', ( #247 ) ) ;
#103 = VERTEX_POINT ( 'NONE', #181 ) ;
#104 = DIRECTION ( 'NONE',  ( 1.000000000000000000, 0.0000000000000000000, 0.0000000000000000000 ) ) ;
#105 = EDGE_LOOP ( 'NONE', ( #148 ) ) ;
#106 = CIRCLE ( 'NONE', #96, 0.8803844939755810506 ) ;
#107 = PERSON_AND_ORGANIZATION_ROLE ( 'design_supplier' ) ;
#108 = LOCAL_TIME ( 9, 32, 33.00000000000000000, #146 ) ;
#109 = CC_DESIGN_PERSON_AND_ORGANIZATION_ASSIGNMENT ( #135, #259, ( #32 ) ) ;
#110 = DIRECTION ( 'NONE',  ( -3.491481338843133355E-15, 1.224646799147353207E-16, -1.000000000000000000 ) ) ;
#111 = CIRCLE ( 'NONE', #50, 1.500000000000001554 ) ;
#112 = CC_DESIGN_SECURITY_CLASSIFICATION ( #162, ( #32 ) ) ;
#113 = EDGE_LOOP ( 'NONE', ( #210 ) ) ;
#114 = ADVANCED_FACE ( 'NONE', ( #250, #15 ), #42, .F. ) ;
#115 = CALENDAR_DATE ( 2021, 30, 11 ) ;
#116 = DATE_AND_TIME ( #38, #268 ) ;
#117 = AXIS2_PLACEMENT_3D ( 'NONE', #43, #66, #92 ) ;
#118 = CARTESIAN_POINT ( 'NONE',  ( 0.0000000000000000000, 0.0000000000000000000, 0.0000000000000000000 ) ) ;
#119 = AXIS2_PLACEMENT_3D ( 'NONE', #302, #74, #104 ) ;
#120 = FACE_OUTER_BOUND ( 'NONE', #287, .T. ) ;
#121 = FACE_OUTER_BOUND ( 'NONE', #290, .T. ) ;
#122 = EDGE_LOOP ( 'NONE', ( #191 ) ) ;
#123 = EDGE_LOOP ( 'NONE', ( #83 ) ) ;
#124 = EDGE_LOOP ( 'NONE', ( #239 ) ) ;
#125 = CARTESIAN_POINT ( 'NONE',  ( 7.283687634879098965E-14, -2.554773714184987586E-15, 20.86131050980348078 ) ) ;
#126 = FACE_BOUND ( 'NONE', #253, .T. ) ;
#127 = EDGE_LOOP ( 'NONE', ( #58 ) ) ;
#128 = SECURITY_CLASSIFICATION_LEVEL ( 'unclassified' ) ;
#129 = ADVANCED_FACE ( 'NONE', ( #140 ), #64, .F. ) ;
#130 = EDGE_LOOP ( 'NONE', ( #138 ) ) ;
#131 = AXIS2_PLACEMENT_3D ( 'NONE', #235, #75, #238 ) ;
#132 = FACE_OUTER_BOUND ( 'NONE', #29, .T. ) ;
#133 = FACE_BOUND ( 'NONE', #297, .T. ) ;
#134 = PLANE ( 'NONE',  #219 ) ;
#135 = PERSON_AND_ORGANIZATION ( #249, #151 ) ;
#136 = DIRECTION ( 'NONE',  ( -3.491481338843133355E-15, 1.224646799147353207E-16, -1.000000000000000000 ) ) ;
#137 = DIRECTION ( 'NONE',  ( 4.275831445896958607E-31, 1.000000000000000000, 1.224646799147353207E-16 ) ) ;
#138 = ORIENTED_EDGE ( 'NONE', *, *, #13, .F. ) ;
#139 = AXIS2_PLACEMENT_3D ( 'NONE', #218, #175, #35 ) ;
#140 = FACE_OUTER_BOUND ( 'NONE', #279, .T. ) ;
#141 = DIRECTION ( 'NONE',  ( 4.275831445896957731E-31, 1.000000000000000000, 1.224646799147353207E-16 ) ) ;
#142 = DIRECTION ( 'NONE',  ( -3.491481338843133355E-15, 1.224646799147353207E-16, -1.000000000000000000 ) ) ;
#143 = EDGE_CURVE ( 'NONE', #272, #272, #111, .T. ) ;
#144 =( LENGTH_UNIT ( ) NAMED_UNIT ( * ) SI_UNIT ( .MILLI., .METRE. ) );
#145 = UNCERTAINTY_MEASURE_WITH_UNIT (LENGTH_MEASURE( 1.000000000000000082E-05 ), #144, 'distance_accuracy_value', 'NONE');
#146 = COORDINATED_UNIVERSAL_TIME_OFFSET ( 1, 0, .AHEAD. ) ;
#147 = EDGE_CURVE ( 'NONE', #100, #100, #150, .T. ) ;
#148 = ORIENTED_EDGE ( 'NONE', *, *, #211, .F. ) ;
#149 = ADVANCED_BREP_SHAPE_REPRESENTATION ( '200114', ( #65, #276, #119 ), #258 ) ;
#150 = CIRCLE ( 'NONE', #248, 0.8091624327025946917 ) ;
#151 = ORGANIZATION ( 'UNSPECIFIED', 'UNSPECIFIED', '' ) ;
#152 = DIRECTION ( 'NONE',  ( 0.0000000000000000000, 1.000000000000000000, 0.0000000000000000000 ) ) ;
#153 = CARTESIAN_POINT ( 'NONE',  ( 0.0000000000000000000, 0.0000000000000000000, 0.0000000000000000000 ) ) ;
#154 = CIRCLE ( 'NONE', #51, 1.499999999999996669 ) ;
#155 = LOCAL_TIME ( 9, 32, 33.00000000000000000, #176 ) ;
#156 = ORIENTED_EDGE ( 'NONE', *, *, #222, .T. ) ;
#157 = APPROVAL ( #48, 'UNSPECIFIED' ) ;
#158 = ORIENTED_EDGE ( 'NONE', *, *, #196, .T. ) ;
#159 = PERSON_AND_ORGANIZATION ( #249, #151 ) ;
#160 = CONICAL_SURFACE ( 'NONE', #139, 0.9535000000000000142, 0.5235987755983020353 ) ;
#161 = CARTESIAN_POINT ( 'NONE',  ( 1.735266225405037467E-13, -6.086494591762345225E-15, 49.70000000000000284 ) ) ;
#162 = SECURITY_CLASSIFICATION ( '', '', #128 ) ;
#163 = CARTESIAN_POINT ( 'NONE',  ( 2.793185071074506684E-14, 7.150104763840390737E-33, 8.000000000000000000 ) ) ;
#164 = EDGE_CURVE ( 'NONE', #184, #184, #183, .T. ) ;
#165 = CARTESIAN_POINT ( 'NONE',  ( 2.793185071074506684E-14, 0.9534999999999990150, 8.000000000000000000 ) ) ;
#166 = APPLICATION_PROTOCOL_DEFINITION ( 'international standard', 'config_control_design', 1994, #271 ) ;
#167 = ORIENTED_EDGE ( 'NONE', *, *, #147, .F. ) ;
#168 = CONICAL_SURFACE ( 'NONE', #59, 1.499999999999996669, 0.1745329251994261754 ) ;
#169 = APPROVAL_DATE_TIME ( #72, #157 ) ;
#170 = CARTESIAN_POINT ( 'NONE',  ( 7.283687634879098965E-14, -2.554773714184987586E-15, 20.86131050980348078 ) ) ;
#171 =( NAMED_UNIT ( * ) SI_UNIT ( $, .STERADIAN. ) SOLID_ANGLE_UNIT ( ) );
#172 = AXIS2_PLACEMENT_3D ( 'NONE', #23, #213, #152 ) ;
#173 = ADVANCED_FACE ( 'NONE', ( #120, #39 ), #14, .T. ) ;
#174 = DATE_AND_TIME ( #115, #155 ) ;
#175 = DIRECTION ( 'NONE',  ( -3.491481338843133355E-15, 1.224646799147353207E-16, -1.000000000000000000 ) ) ;
#176 = COORDINATED_UNIVERSAL_TIME_OFFSET ( 1, 0, .AHEAD. ) ;
#177 = DIRECTION ( 'NONE',  ( -4.275831445896958607E-31, -1.000000000000000000, -1.224646799147353207E-16 ) ) ;
#178 = AXIS2_PLACEMENT_3D ( 'NONE', #204, #41, #137 ) ;
#179 = EDGE_LOOP ( 'NONE', ( #24 ) ) ;
#180 = APPROVAL_DATE_TIME ( #7, #230 ) ;
#181 = CARTESIAN_POINT ( 'NONE',  ( 8.728703347107833388E-16, 0.9534999999999990150, 0.2500000000000000000 ) ) ;
#182 = CARTESIAN_POINT ( 'NONE',  ( -3.459842174588235544E-31, 1.213549274208183459E-32, -9.909381831995181354E-17 ) ) ;
#183 = CIRCLE ( 'NONE', #280, 0.9535000000000000142 ) ;
#184 = VERTEX_POINT ( 'NONE', #165 ) ;
#185 =( NAMED_UNIT ( * ) PLANE_ANGLE_UNIT ( ) SI_UNIT ( $, .RADIAN. ) );
#186 = DIRECTION ( 'NONE',  ( -3.491481338843133355E-15, 1.224646799147353207E-16, -1.000000000000000000 ) ) ;
#187 = EDGE_LOOP ( 'NONE', ( #156 ) ) ;
#188 = CARTESIAN_POINT ( 'NONE',  ( 6.056776150402963091E-14, 0.8803844939755788301, 17.34729635533384595 ) ) ;
#189 = CARTESIAN_POINT ( 'NONE',  ( 2.855775899875449572E-14, 0.8499999999999992006, 8.179267258583378108 ) ) ;
#190 = AXIS2_PLACEMENT_3D ( 'NONE', #199, #220, #260 ) ;
#191 = ORIENTED_EDGE ( 'NONE', *, *, #266, .F. ) ;
#192 = CC_DESIGN_APPROVAL ( #99, ( #32 ) ) ;
#193 = DIRECTION ( 'NONE',  ( 4.275831445896959482E-31, 1.000000000000000000, 1.224646799147353207E-16 ) ) ;
#194 = DIRECTION ( 'NONE',  ( -3.491481338843133355E-15, 1.224646799147353207E-16, -1.000000000000000000 ) ) ;
#195 = ORIENTED_EDGE ( 'NONE', *, *, #143, .T. ) ;
#196 = EDGE_CURVE ( 'NONE', #25, #25, #106, .T. ) ;
#197 = SHAPE_DEFINITION_REPRESENTATION ( #8, #149 ) ;
#198 = DATE_AND_TIME ( #221, #245 ) ;
#199 = CARTESIAN_POINT ( 'NONE',  ( 2.855775899875449572E-14, -1.001671346759487905E-15, 8.179267258583378108 ) ) ;
#200 = FACE_OUTER_BOUND ( 'NONE', #205, .T. ) ;
#201 = DIRECTION ( 'NONE',  ( 0.0000000000000000000, 1.000000000000000000, 0.0000000000000000000 ) ) ;
#202 = CALENDAR_DATE ( 2021, 30, 11 ) ;
#203 = PERSON_AND_ORGANIZATION ( #249, #151 ) ;
#204 = CARTESIAN_POINT ( 'NONE',  ( 5.935518276033326704E-14, -2.168404344971008868E-15, 17.00000000000000000 ) ) ;
#205 = EDGE_LOOP ( 'NONE', ( #282 ) ) ;
#206 = CYLINDRICAL_SURFACE ( 'NONE', #36, 0.9534999999999994591 ) ;
#207 = ADVANCED_FACE ( 'NONE', ( #1, #16 ), #206, .T. ) ;
#208 = APPLICATION_PROTOCOL_DEFINITION ( 'international standard', 'config_control_design', 1994, #34 ) ;
#209 = CARTESIAN_POINT ( 'NONE',  ( 1.745740669421566678E-13, 8.998558695971067645E-33, 50.00000000000000000 ) ) ;
#210 = ORIENTED_EDGE ( 'NONE', *, *, #143, .F. ) ;
#211 = EDGE_CURVE ( 'NONE', #277, #277, #79, .T. ) ;
#212 = CALENDAR_DATE ( 2021, 30, 11 ) ;
#213 = DIRECTION ( 'NONE',  ( -3.491481338843133355E-15, 1.224646799147353207E-16, -1.000000000000000000 ) ) ;
#214 = FACE_OUTER_BOUND ( 'NONE', #127, .T. ) ;
#215 = AXIS2_PLACEMENT_3D ( 'NONE', #11, #264, #201 ) ;
#216 = DIRECTION ( 'NONE',  ( 0.0000000000000000000, -1.000000000000000000, 0.0000000000000000000 ) ) ;
#217 = DATE_TIME_ROLE ( 'creation_date' ) ;
#218 = CARTESIAN_POINT ( 'NONE',  ( 2.793185071074506684E-14, -9.797174393178825657E-16, 8.000000000000000000 ) ) ;
#219 = AXIS2_PLACEMENT_3D ( 'NONE', #293, #55, #86 ) ;
#220 = DIRECTION ( 'NONE',  ( -3.491481338843133355E-15, 1.224646799147353207E-16, -1.000000000000000000 ) ) ;
#221 = CALENDAR_DATE ( 2021, 30, 11 ) ;
#222 = EDGE_CURVE ( 'NONE', #254, #254, #267, .T. ) ;
#223 = DIRECTION ( 'NONE',  ( -3.491481338843133355E-15, 1.224646799147353207E-16, -1.000000000000000000 ) ) ;
#224 = CARTESIAN_POINT ( 'NONE',  ( 6.056776150402963091E-14, -2.124431095542013992E-15, 17.34729635533384595 ) ) ;
#225 = EDGE_LOOP ( 'NONE', ( #90 ) ) ;
#226 = CONICAL_SURFACE ( 'NONE', #117, 0.9534999999999990150, 0.5235987755982927094 ) ;
#227 = AXIS2_PLACEMENT_3D ( 'NONE', #47, #20, #5 ) ;
#228 = DIRECTION ( 'NONE',  ( 0.0000000000000000000, 1.000000000000000000, 0.0000000000000000000 ) ) ;
#229 = DIRECTION ( 'NONE',  ( 0.0000000000000000000, 1.000000000000000000, 0.0000000000000000000 ) ) ;
#230 = APPROVAL ( #53, 'UNSPECIFIED' ) ;
#231 = DIRECTION ( 'NONE',  ( -3.491481338843133355E-15, 1.224646799147353207E-16, -1.000000000000000000 ) ) ;
#232 = AXIS2_PLACEMENT_3D ( 'NONE', #153, #110, #262 ) ;
#233 = CONICAL_SURFACE ( 'NONE', #227, 1.200000000000001732, 0.7853981633974453924 ) ;
#234 = FACE_BOUND ( 'NONE', #123, .T. ) ;
#235 = CARTESIAN_POINT ( 'NONE',  ( 2.793185071074506684E-14, -9.797174393178825657E-16, 8.000000000000000000 ) ) ;
#236 = VERTEX_POINT ( 'NONE', #46 ) ;
#237 = CC_DESIGN_APPROVAL ( #157, ( #30 ) ) ;
#238 = DIRECTION ( 'NONE',  ( 0.0000000000000000000, 1.000000000000000000, 0.0000000000000000000 ) ) ;
#239 = ORIENTED_EDGE ( 'NONE', *, *, #147, .T. ) ;
#240 = APPROVAL_ROLE ( '' ) ;
#241 = CC_DESIGN_PERSON_AND_ORGANIZATION_ASSIGNMENT ( #288, #107, ( #32 ) ) ;
#242 = FACE_OUTER_BOUND ( 'NONE', #124, .T. ) ;
#243 = APPROVAL_STATUS ( 'not_yet_approved' ) ;
#244 = FACE_OUTER_BOUND ( 'NONE', #93, .T. ) ;
#245 = LOCAL_TIME ( 9, 32, 33.00000000000000000, #292 ) ;
#246 = ADVANCED_FACE ( 'NONE', ( #126, #214 ), #168, .T. ) ;
#247 = ORIENTED_EDGE ( 'NONE', *, *, #94, .F. ) ;
#248 = AXIS2_PLACEMENT_3D ( 'NONE', #182, #142, #141 ) ;
#249 = PERSON ( 'UNSPECIFIED', 'UNSPECIFIED', 'UNSPECIFIED', ('UNSPECIFIED'), ('UNSPECIFIED'), ('UNSPECIFIED') ) ;
#250 = FACE_OUTER_BOUND ( 'NONE', #105, .T. ) ;
#251 = CARTESIAN_POINT ( 'NONE',  ( 2.793185071074506684E-14, 0.9534999999999990150, 8.000000000000000000 ) ) ;
#252 = AXIS2_PLACEMENT_3D ( 'NONE', #274, #231, #301 ) ;
#253 = EDGE_LOOP ( 'NONE', ( #87 ) ) ;
#254 = VERTEX_POINT ( 'NONE', #251 ) ;
#255 = VERTEX_POINT ( 'NONE', #189 ) ;
#256 = CLOSED_SHELL ( 'NONE', ( #129, #10, #173, #114, #246, #44, #270, #283 ) ) ;
#257 = AXIS2_PLACEMENT_3D ( 'NONE', #296, #136, #98 ) ;
#258 =( GEOMETRIC_REPRESENTATION_CONTEXT ( 3 ) GLOBAL_UNCERTAINTY_ASSIGNED_CONTEXT ( ( #145 ) ) GLOBAL_UNIT_ASSIGNED_CONTEXT ( ( #144, #185, #171 ) ) REPRESENTATION_CONTEXT ( 'NONE', 'WORKASPACE' ) );
#259 = PERSON_AND_ORGANIZATION_ROLE ( 'creator' ) ;
#260 = DIRECTION ( 'NONE',  ( 0.0000000000000000000, 1.000000000000000000, 0.0000000000000000000 ) ) ;
#261 = CC_DESIGN_PERSON_AND_ORGANIZATION_ASSIGNMENT ( #84, #31, ( #162 ) ) ;
#262 = DIRECTION ( 'NONE',  ( 4.275831445896958607E-31, 1.000000000000000000, 1.224646799147353454E-16 ) ) ;
#263 = CIRCLE ( 'NONE', #252, 0.9534999999999990150 ) ;
#264 = DIRECTION ( 'NONE',  ( -3.491481338843133355E-15, 1.224646799147353207E-16, -1.000000000000000000 ) ) ;
#265 = FACE_OUTER_BOUND ( 'NONE', #179, .T. ) ;
#266 = EDGE_CURVE ( 'NONE', #236, #236, #154, .T. ) ;
#267 = CIRCLE ( 'NONE', #131, 0.9535000000000000142 ) ;
#268 = LOCAL_TIME ( 9, 32, 33.00000000000000000, #12 ) ;
#269 = DIRECTION ( 'NONE',  ( -4.275831445896958607E-31, -1.000000000000000000, -1.224646799147353207E-16 ) ) ;
#270 = ADVANCED_FACE ( 'NONE', ( #81, #234 ), #233, .T. ) ;
#271 = APPLICATION_CONTEXT ( 'configuration controlled 3d designs of mechanical parts and assemblies' ) ;
#272 = VERTEX_POINT ( 'NONE', #63 ) ;
#273 = CC_DESIGN_DATE_AND_TIME_ASSIGNMENT ( #174, #60, ( #162 ) ) ;
#274 = CARTESIAN_POINT ( 'NONE',  ( 8.728703347107829444E-16, -3.061616997868381785E-17, 0.2499999999999998890 ) ) ;
#275 = CIRCLE ( 'NONE', #190, 0.8500000000000001998 ) ;
#276 = MANIFOLD_SOLID_BREP ( 'Corps-Déplacer/Copier1[2]', #95 ) ;
#277 = VERTEX_POINT ( 'NONE', #28 ) ;
#278 = CARTESIAN_POINT ( 'NONE',  ( 2.793185071074506684E-14, -9.797174393178825657E-16, 8.000000000000000000 ) ) ;
#279 = EDGE_LOOP ( 'NONE', ( #70 ) ) ;
#280 = AXIS2_PLACEMENT_3D ( 'NONE', #278, #62, #229 ) ;
#281 = VERTEX_POINT ( 'NONE', #73 ) ;
#282 = ORIENTED_EDGE ( 'NONE', *, *, #94, .T. ) ;
#283 = ADVANCED_FACE ( 'NONE', ( #121 ), #4, .F. ) ;
#284 = MECHANICAL_CONTEXT ( 'NONE', #271, 'mechanical' ) ;
#285 = DIRECTION ( 'NONE',  ( 0.0000000000000000000, 1.000000000000000000, 0.0000000000000000000 ) ) ;
#286 = CC_DESIGN_APPROVAL ( #230, ( #162 ) ) ;
#287 = EDGE_LOOP ( 'NONE', ( #49 ) ) ;
#288 = PERSON_AND_ORGANIZATION ( #249, #151 ) ;
#289 = PRODUCT ( '200114', '200114', '', ( #284 ) ) ;
#290 = EDGE_LOOP ( 'NONE', ( #26 ) ) ;
#291 = PRODUCT_RELATED_PRODUCT_CATEGORY ( 'detail', '', ( #289 ) ) ;
#292 = COORDINATED_UNIVERSAL_TIME_OFFSET ( 1, 0, .AHEAD. ) ;
#293 = CARTESIAN_POINT ( 'NONE',  ( 2.793185071074506684E-14, 7.150104763840390737E-33, 8.000000000000000000 ) ) ;
#294 = FACE_BOUND ( 'NONE', #225, .T. ) ;
#295 = APPROVAL_PERSON_ORGANIZATION ( #159, #99, #40 ) ;
#296 = CARTESIAN_POINT ( 'NONE',  ( 0.0000000000000000000, 0.0000000000000000000, 0.0000000000000000000 ) ) ;
#297 = EDGE_LOOP ( 'NONE', ( #167 ) ) ;
#298 = PERSON_AND_ORGANIZATION ( #249, #151 ) ;
#299 = DIRECTION ( 'NONE',  ( -3.491481338843133355E-15, 1.224646799147353207E-16, -1.000000000000000000 ) ) ;
#300 = ORIENTED_EDGE ( 'NONE', *, *, #222, .F. ) ;
#301 = DIRECTION ( 'NONE',  ( 4.039706228394835948E-31, 1.000000000000000000, 1.137076216555328436E-16 ) ) ;
#302 = CARTESIAN_POINT ( 'NONE',  ( 0.0000000000000000000, 0.0000000000000000000, 0.0000000000000000000 ) ) ;
#303 = LOCAL_TIME ( 9, 32, 33.00000000000000000, #91 ) ;
ENDSEC;
END-ISO-10303-21;
