ISO-10303-21;
HEADER;
FILE_DESCRIPTION (( 'STEP AP203' ),
    '1' );
FILE_NAME ('200113.step',
    '2021-11-30T08:32:33',
    ( '' ),
    ( '' ),
    'SwSTEP 2.0',
    'SolidWorks 2019',
    '' );
FILE_SCHEMA (( 'CONFIG_CONTROL_DESIGN' ));
ENDSEC;

DATA;
#1 = ADVANCED_FACE ( 'NONE', ( #85, #268 ), #188, .T. ) ;
#2 = EDGE_LOOP ( 'NONE', ( #126 ) ) ;
#3 = ADVANCED_FACE ( 'NONE', ( #277, #8 ), #261, .T. ) ;
#4 = APPROVAL ( #60, 'UNSPECIFIED' ) ;
#5 = ORIENTED_EDGE ( 'NONE', *, *, #171, .T. ) ;
#6 = ORIENTED_EDGE ( 'NONE', *, *, #64, .F. ) ;
#7 = PERSON_AND_ORGANIZATION_ROLE ( 'creator' ) ;
#8 = FACE_OUTER_BOUND ( 'NONE', #2, .T. ) ;
#9 = CALENDAR_DATE ( 2021, 30, 11 ) ;
#10 = CARTESIAN_POINT ( 'NONE',  ( -1.892735826383161356E-31, 0.7841624327025945584, -5.421010862427522170E-17 ) ) ;
#11 = CYLINDRICAL_SURFACE ( 'NONE', #169, 1.499999999999999112 ) ;
#12 = DIRECTION ( 'NONE',  ( 4.275831445896958607E-31, 1.000000000000000000, 1.224646799147353207E-16 ) ) ;
#13 = DATE_AND_TIME ( #37, #280 ) ;
#14 = CARTESIAN_POINT ( 'NONE',  ( 6.056776150402963091E-14, 0.8553844939755785859, 17.34729635533384595 ) ) ;
#15 = EDGE_CURVE ( 'NONE', #220, #220, #95, .T. ) ;
#16 = CALENDAR_DATE ( 2021, 30, 11 ) ;
#17 = COORDINATED_UNIVERSAL_TIME_OFFSET ( 1, 0, .AHEAD. ) ;
#18 = CARTESIAN_POINT ( 'NONE',  ( 1.735266225405037467E-13, -6.086494591762345225E-15, 49.70000000000000284 ) ) ;
#19 = DIRECTION ( 'NONE',  ( -3.491481338843133355E-15, 1.224646799147353207E-16, -1.000000000000000000 ) ) ;
#20 = APPROVAL ( #240, 'UNSPECIFIED' ) ;
#21 = DATE_AND_TIME ( #229, #247 ) ;
#22 = TOROIDAL_SURFACE ( 'NONE', #137, 2.825000000000000178, 2.000000000000000444 ) ;
#23 = EDGE_CURVE ( 'NONE', #66, #66, #82, .T. ) ;
#24 = CONICAL_SURFACE ( 'NONE', #173, 1.499999999999996669, 0.1745329251994262587 ) ;
#25 = ORIENTED_EDGE ( 'NONE', *, *, #46, .F. ) ;
#26 = DIRECTION ( 'NONE',  ( -3.491481338843133355E-15, 1.224646799147353207E-16, -1.000000000000000000 ) ) ;
#27 = FACE_OUTER_BOUND ( 'NONE', #28, .T. ) ;
#28 = EDGE_LOOP ( 'NONE', ( #77 ) ) ;
#29 = CARTESIAN_POINT ( 'NONE',  ( 5.935518276033326704E-14, -2.168404344971008868E-15, 17.00000000000000000 ) ) ;
#30 = ADVANCED_FACE ( 'NONE', ( #297, #89 ), #24, .T. ) ;
#31 = EDGE_LOOP ( 'NONE', ( #213 ) ) ;
#32 = CARTESIAN_POINT ( 'NONE',  ( 1.745740669421566678E-13, 8.998558695971067645E-33, 50.00000000000000000 ) ) ;
#33 = PRODUCT_DEFINITION_SHAPE ( 'NONE', 'NONE',  #264 ) ;
#34 = APPROVAL_DATE_TIME ( #21, #4 ) ;
#35 = DIRECTION ( 'NONE',  ( -3.491481338843133355E-15, 1.224646799147353207E-16, -1.000000000000000000 ) ) ;
#36 = AXIS2_PLACEMENT_3D ( 'NONE', #134, #19, #117 ) ;
#37 = CALENDAR_DATE ( 2021, 30, 11 ) ;
#38 = VERTEX_POINT ( 'NONE', #141 ) ;
#39 = MANIFOLD_SOLID_BREP ( 'Corps-Déplacer/Copier1[2]', #253 ) ;
#40 = COORDINATED_UNIVERSAL_TIME_OFFSET ( 1, 0, .AHEAD. ) ;
#41 = EDGE_CURVE ( 'NONE', #165, #165, #76, .T. ) ;
#42 = DIRECTION ( 'NONE',  ( 3.491481338843133355E-15, -1.224646799147353207E-16, 1.000000000000000000 ) ) ;
#43 = DIRECTION ( 'NONE',  ( -4.148475916827652635E-31, -1.000000000000000000, -1.167692162073780823E-16 ) ) ;
#44 = DIRECTION ( 'NONE',  ( 0.0000000000000000000, 1.000000000000000000, 0.0000000000000000000 ) ) ;
#45 = CARTESIAN_POINT ( 'NONE',  ( 0.0000000000000000000, 0.0000000000000000000, 0.0000000000000000000 ) ) ;
#46 = EDGE_CURVE ( 'NONE', #144, #144, #123, .T. ) ;
#47 = AXIS2_PLACEMENT_3D ( 'NONE', #157, #265, #55 ) ;
#48 = ORIENTED_EDGE ( 'NONE', *, *, #70, .T. ) ;
#49 = CC_DESIGN_PERSON_AND_ORGANIZATION_ASSIGNMENT ( #109, #249, ( #91 ) ) ;
#50 = EDGE_LOOP ( 'NONE', ( #259 ) ) ;
#51 = AXIS2_PLACEMENT_3D ( 'NONE', #254, #248, #43 ) ;
#52 = FACE_BOUND ( 'NONE', #151, .T. ) ;
#53 = EDGE_LOOP ( 'NONE', ( #175 ) ) ;
#54 = AXIS2_PLACEMENT_3D ( 'NONE', #45, #221, #12 ) ;
#55 = DIRECTION ( 'NONE',  ( 0.0000000000000000000, 1.000000000000000000, 0.0000000000000000000 ) ) ;
#56 = PERSON_AND_ORGANIZATION ( #154, #115 ) ;
#57 = DIRECTION ( 'NONE',  ( -3.491481338843133355E-15, 1.224646799147353207E-16, -1.000000000000000000 ) ) ;
#58 = AXIS2_PLACEMENT_3D ( 'NONE', #125, #100, #174 ) ;
#59 = DATE_AND_TIME ( #278, #120 ) ;
#60 = APPROVAL_STATUS ( 'not_yet_approved' ) ;
#61 = CARTESIAN_POINT ( 'NONE',  ( 7.333190571480389868E-14, -2.572137007003631529E-15, 21.00309255529392871 ) ) ;
#62 = CARTESIAN_POINT ( 'NONE',  ( 2.793185071074506684E-14, 0.9284999999999991038, 8.000000000000000000 ) ) ;
#63 = FACE_OUTER_BOUND ( 'NONE', #50, .T. ) ;
#64 = EDGE_CURVE ( 'NONE', #135, #135, #214, .T. ) ;
#65 =( GEOMETRIC_REPRESENTATION_CONTEXT ( 3 ) GLOBAL_UNCERTAINTY_ASSIGNED_CONTEXT ( ( #231 ) ) GLOBAL_UNIT_ASSIGNED_CONTEXT ( ( #185, #183, #251 ) ) REPRESENTATION_CONTEXT ( 'NONE', 'WORKASPACE' ) );
#66 = VERTEX_POINT ( 'NONE', #62 ) ;
#67 = CARTESIAN_POINT ( 'NONE',  ( 6.056776150402963091E-14, -2.124431095542013992E-15, 17.34729635533384595 ) ) ;
#68 = COORDINATED_UNIVERSAL_TIME_OFFSET ( 1, 0, .AHEAD. ) ;
#69 = DIRECTION ( 'NONE',  ( -4.275831445896958607E-31, -1.000000000000000000, -1.224646799147353207E-16 ) ) ;
#70 = EDGE_CURVE ( 'NONE', #88, #88, #128, .T. ) ;
#71 = AXIS2_PLACEMENT_3D ( 'NONE', #147, #118, #83 ) ;
#72 = EDGE_LOOP ( 'NONE', ( #191 ) ) ;
#73 = CC_DESIGN_PERSON_AND_ORGANIZATION_ASSIGNMENT ( #56, #7, ( #264 ) ) ;
#74 = EDGE_LOOP ( 'NONE', ( #234 ) ) ;
#75 = CYLINDRICAL_SURFACE ( 'NONE', #58, 0.8249999999999999556 ) ;
#76 = CIRCLE ( 'NONE', #36, 0.9285000000000001030 ) ;
#77 = ORIENTED_EDGE ( 'NONE', *, *, #70, .F. ) ;
#78 = DIRECTION ( 'NONE',  ( -3.491481338843133355E-15, 1.224646799147353207E-16, -1.000000000000000000 ) ) ;
#79 = EDGE_LOOP ( 'NONE', ( #194 ) ) ;
#80 = ADVANCED_BREP_SHAPE_REPRESENTATION ( '200113', ( #246, #39, #84 ), #65 ) ;
#81 = DIRECTION ( 'NONE',  ( 4.275831445896958607E-31, 1.000000000000000000, 1.224646799147353207E-16 ) ) ;
#82 = CIRCLE ( 'NONE', #47, 0.9285000000000001030 ) ;
#83 = DIRECTION ( 'NONE',  ( 0.0000000000000000000, 1.000000000000000000, 0.0000000000000000000 ) ) ;
#84 = AXIS2_PLACEMENT_3D ( 'NONE', #295, #87, #266 ) ;
#85 = FACE_BOUND ( 'NONE', #99, .T. ) ;
#86 = DATE_AND_TIME ( #16, #256 ) ;
#87 = DIRECTION ( 'NONE',  ( 0.0000000000000000000, 0.0000000000000000000, 1.000000000000000000 ) ) ;
#88 = VERTEX_POINT ( 'NONE', #181 ) ;
#89 = FACE_OUTER_BOUND ( 'NONE', #103, .T. ) ;
#90 = PERSON_AND_ORGANIZATION ( #154, #115 ) ;
#91 = SECURITY_CLASSIFICATION ( '', '', #269 ) ;
#92 = DIRECTION ( 'NONE',  ( 3.491481338843133355E-15, -1.224646799147353207E-16, 1.000000000000000000 ) ) ;
#93 = CARTESIAN_POINT ( 'NONE',  ( 2.793185071074506684E-14, 6.962634791007659904E-33, 8.000000000000000000 ) ) ;
#94 = FACE_OUTER_BOUND ( 'NONE', #236, .T. ) ;
#95 = CIRCLE ( 'NONE', #71, 0.8250000000000002887 ) ;
#96 = ADVANCED_FACE ( 'NONE', ( #94 ), #138, .F. ) ;
#97 = AXIS2_PLACEMENT_3D ( 'NONE', #61, #274, #296 ) ;
#98 = DESIGN_CONTEXT ( 'detailed design', #148, 'design' ) ;
#99 = EDGE_LOOP ( 'NONE', ( #6 ) ) ;
#100 = DIRECTION ( 'NONE',  ( -3.491481338843133355E-15, 1.224646799147353207E-16, -1.000000000000000000 ) ) ;
#101 = AXIS2_PLACEMENT_3D ( 'NONE', #107, #200, #193 ) ;
#102 = ADVANCED_FACE ( 'NONE', ( #168, #108 ), #201, .T. ) ;
#103 = EDGE_LOOP ( 'NONE', ( #283 ) ) ;
#104 = ADVANCED_FACE ( 'NONE', ( #203, #176 ), #22, .F. ) ;
#105 = PERSON_AND_ORGANIZATION_ROLE ( 'design_supplier' ) ;
#106 = PERSON_AND_ORGANIZATION ( #154, #115 ) ;
#107 = CARTESIAN_POINT ( 'NONE',  ( 8.728703347107829444E-16, -3.061616997868381785E-17, 0.2499999999999998890 ) ) ;
#108 = FACE_OUTER_BOUND ( 'NONE', #152, .T. ) ;
#109 = PERSON_AND_ORGANIZATION ( #154, #115 ) ;
#110 = APPROVAL_DATE_TIME ( #13, #20 ) ;
#111 = PERSON_AND_ORGANIZATION_ROLE ( 'design_owner' ) ;
#112 = VERTEX_POINT ( 'NONE', #205 ) ;
#113 = APPROVAL_DATE_TIME ( #198, #145 ) ;
#114 = AXIS2_PLACEMENT_3D ( 'NONE', #93, #42, #159 ) ;
#115 = ORGANIZATION ( 'UNSPECIFIED', 'UNSPECIFIED', '' ) ;
#116 = CARTESIAN_POINT ( 'NONE',  ( -2.622841107411986555E-31, 9.199688198615634071E-33, -7.512115497317932334E-17 ) ) ;
#117 = DIRECTION ( 'NONE',  ( 0.0000000000000000000, 1.000000000000000000, 0.0000000000000000000 ) ) ;
#118 = DIRECTION ( 'NONE',  ( -3.491481338843133355E-15, 1.224646799147353207E-16, -1.000000000000000000 ) ) ;
#119 = CIRCLE ( 'NONE', #101, 0.9284999999999991038 ) ;
#120 = LOCAL_TIME ( 9, 32, 33.00000000000000000, #40 ) ;
#121 = APPLICATION_CONTEXT ( 'configuration controlled 3d designs of mechanical parts and assemblies' ) ;
#122 = ADVANCED_FACE ( 'NONE', ( #136, #263 ), #11, .T. ) ;
#123 = CIRCLE ( 'NONE', #255, 0.8553844939755808063 ) ;
#124 = ORIENTED_EDGE ( 'NONE', *, *, #64, .T. ) ;
#125 = CARTESIAN_POINT ( 'NONE',  ( 0.0000000000000000000, 0.0000000000000000000, 0.0000000000000000000 ) ) ;
#126 = ORIENTED_EDGE ( 'NONE', *, *, #23, .F. ) ;
#127 = DIRECTION ( 'NONE',  ( 0.0000000000000000000, 1.000000000000000000, 0.0000000000000000000 ) ) ;
#128 = CIRCLE ( 'NONE', #290, 1.200000000000001732 ) ;
#129 = ORIENTED_EDGE ( 'NONE', *, *, #300, .F. ) ;
#130 = DATE_TIME_ROLE ( 'creation_date' ) ;
#131 = DIRECTION ( 'NONE',  ( -3.491481338843133355E-15, 1.224646799147353207E-16, -1.000000000000000000 ) ) ;
#132 = EDGE_LOOP ( 'NONE', ( #172 ) ) ;
#133 = DIRECTION ( 'NONE',  ( 4.275831445896958607E-31, 1.000000000000000000, 1.224646799147353207E-16 ) ) ;
#134 = CARTESIAN_POINT ( 'NONE',  ( 2.793185071074506684E-14, -9.797174393178825657E-16, 8.000000000000000000 ) ) ;
#135 = VERTEX_POINT ( 'NONE', #10 ) ;
#136 = FACE_OUTER_BOUND ( 'NONE', #192, .T. ) ;
#137 = AXIS2_PLACEMENT_3D ( 'NONE', #29, #131, #81 ) ;
#138 = PLANE ( 'NONE',  #146 ) ;
#139 = PERSON_AND_ORGANIZATION ( #154, #115 ) ;
#140 = CARTESIAN_POINT ( 'NONE',  ( 1.735266225405037467E-13, 1.499999999999995559, 49.70000000000000284 ) ) ;
#141 = CARTESIAN_POINT ( 'NONE',  ( 8.728703347107833388E-16, 0.9284999999999991038, 0.2500000000000000000 ) ) ;
#142 = COORDINATED_UNIVERSAL_TIME_OFFSET ( 1, 0, .AHEAD. ) ;
#143 = FACE_OUTER_BOUND ( 'NONE', #211, .T. ) ;
#144 = VERTEX_POINT ( 'NONE', #14 ) ;
#145 = APPROVAL ( #219, 'UNSPECIFIED' ) ;
#146 = AXIS2_PLACEMENT_3D ( 'NONE', #189, #279, #69 ) ;
#147 = CARTESIAN_POINT ( 'NONE',  ( 2.855775899875450203E-14, -1.001671346759488102E-15, 8.179267258583379885 ) ) ;
#148 = APPLICATION_CONTEXT ( 'configuration controlled 3d designs of mechanical parts and assemblies' ) ;
#149 = CONICAL_SURFACE ( 'NONE', #227, 1.200000000000001732, 0.7853981633974453924 ) ;
#150 = APPROVAL_PERSON_ORGANIZATION ( #294, #145, #156 ) ;
#151 = EDGE_LOOP ( 'NONE', ( #48 ) ) ;
#152 = EDGE_LOOP ( 'NONE', ( #197 ) ) ;
#153 = DIRECTION ( 'NONE',  ( -3.491481338843133355E-15, 1.224646799147353207E-16, -1.000000000000000000 ) ) ;
#154 = PERSON ( 'UNSPECIFIED', 'UNSPECIFIED', 'UNSPECIFIED', ('UNSPECIFIED'), ('UNSPECIFIED'), ('UNSPECIFIED') ) ;
#155 = AXIS2_PLACEMENT_3D ( 'NONE', #218, #289, #179 ) ;
#156 = APPROVAL_ROLE ( '' ) ;
#157 = CARTESIAN_POINT ( 'NONE',  ( 2.793185071074506684E-14, -9.797174393178825657E-16, 8.000000000000000000 ) ) ;
#158 = PERSON_AND_ORGANIZATION ( #154, #115 ) ;
#159 = DIRECTION ( 'NONE',  ( -4.275831445896958607E-31, -1.000000000000000000, -1.224646799147353207E-16 ) ) ;
#160 = APPROVAL_PERSON_ORGANIZATION ( #158, #20, #216 ) ;
#161 = PERSON_AND_ORGANIZATION ( #154, #115 ) ;
#162 = APPROVAL_ROLE ( '' ) ;
#163 = ADVANCED_FACE ( 'NONE', ( #27 ), #291, .F. ) ;
#164 = AXIS2_PLACEMENT_3D ( 'NONE', #285, #26, #127 ) ;
#165 = VERTEX_POINT ( 'NONE', #252 ) ;
#166 = DIRECTION ( 'NONE',  ( 3.491481338843133355E-15, -1.224646799147353207E-16, 1.000000000000000000 ) ) ;
#167 = CC_DESIGN_PERSON_AND_ORGANIZATION_ASSIGNMENT ( #139, #202, ( #284 ) ) ;
#168 = FACE_OUTER_BOUND ( 'NONE', #132, .T. ) ;
#169 = AXIS2_PLACEMENT_3D ( 'NONE', #237, #153, #242 ) ;
#170 = EDGE_LOOP ( 'NONE', ( #25 ) ) ;
#171 = EDGE_CURVE ( 'NONE', #245, #245, #244, .T. ) ;
#172 = ORIENTED_EDGE ( 'NONE', *, *, #178, .F. ) ;
#173 = AXIS2_PLACEMENT_3D ( 'NONE', #182, #166, #226 ) ;
#174 = DIRECTION ( 'NONE',  ( 4.275831445896958607E-31, 1.000000000000000000, 1.224646799147353207E-16 ) ) ;
#175 = ORIENTED_EDGE ( 'NONE', *, *, #300, .T. ) ;
#176 = FACE_OUTER_BOUND ( 'NONE', #74, .T. ) ;
#177 = ORIENTED_EDGE ( 'NONE', *, *, #281, .F. ) ;
#178 = EDGE_CURVE ( 'NONE', #38, #38, #119, .T. ) ;
#179 = DIRECTION ( 'NONE',  ( 0.0000000000000000000, 1.000000000000000000, 0.0000000000000000000 ) ) ;
#180 = DATE_TIME_ROLE ( 'classification_date' ) ;
#181 = CARTESIAN_POINT ( 'NONE',  ( 1.745740669421566678E-13, 1.199999999999995515, 50.00000000000000000 ) ) ;
#182 = CARTESIAN_POINT ( 'NONE',  ( 7.333190571480389868E-14, -2.572137007003631529E-15, 21.00309255529392871 ) ) ;
#183 =( NAMED_UNIT ( * ) PLANE_ANGLE_UNIT ( ) SI_UNIT ( $, .RADIAN. ) );
#184 = DIRECTION ( 'NONE',  ( 0.0000000000000000000, 1.000000000000000000, 0.0000000000000000000 ) ) ;
#185 =( LENGTH_UNIT ( ) NAMED_UNIT ( * ) SI_UNIT ( .MILLI., .METRE. ) );
#186 = CC_DESIGN_PERSON_AND_ORGANIZATION_ASSIGNMENT ( #106, #111, ( #239 ) ) ;
#187 = CC_DESIGN_APPROVAL ( #145, ( #284 ) ) ;
#188 = CONICAL_SURFACE ( 'NONE', #51, 0.9284999999999991038, 0.5235987755982929315 ) ;
#189 = CARTESIAN_POINT ( 'NONE',  ( 2.793185071074506684E-14, 6.962634791007659904E-33, 8.000000000000000000 ) ) ;
#190 = CC_DESIGN_SECURITY_CLASSIFICATION ( #91, ( #284 ) ) ;
#191 = ORIENTED_EDGE ( 'NONE', *, *, #171, .F. ) ;
#192 = EDGE_LOOP ( 'NONE', ( #177 ) ) ;
#193 = DIRECTION ( 'NONE',  ( 4.148475916827652635E-31, 1.000000000000000000, 1.167692162073780823E-16 ) ) ;
#194 = ORIENTED_EDGE ( 'NONE', *, *, #178, .T. ) ;
#195 = LOCAL_TIME ( 9, 32, 33.00000000000000000, #68 ) ;
#196 = CARTESIAN_POINT ( 'NONE',  ( 1.745740669421566678E-13, -6.123233995736766085E-15, 50.00000000000000000 ) ) ;
#197 = ORIENTED_EDGE ( 'NONE', *, *, #41, .T. ) ;
#198 = DATE_AND_TIME ( #9, #195 ) ;
#199 = CC_DESIGN_PERSON_AND_ORGANIZATION_ASSIGNMENT ( #161, #105, ( #284 ) ) ;
#200 = DIRECTION ( 'NONE',  ( -3.491481338843133355E-15, 1.224646799147353207E-16, -1.000000000000000000 ) ) ;
#201 = CYLINDRICAL_SURFACE ( 'NONE', #54, 0.9284999999999996589 ) ;
#202 = PERSON_AND_ORGANIZATION_ROLE ( 'creator' ) ;
#203 = FACE_OUTER_BOUND ( 'NONE', #72, .T. ) ;
#204 = SHAPE_DEFINITION_REPRESENTATION ( #33, #80 ) ;
#205 = CARTESIAN_POINT ( 'NONE',  ( 7.333190571480389868E-14, 1.499999999999994005, 21.00309255529392871 ) ) ;
#206 = PLANE ( 'NONE',  #114 ) ;
#207 = CARTESIAN_POINT ( 'NONE',  ( 2.855775899875450203E-14, 0.8249999999999992895, 8.179267258583379885 ) ) ;
#208 = DIRECTION ( 'NONE',  ( -3.491481338843133355E-15, 1.224646799147353207E-16, -1.000000000000000000 ) ) ;
#209 = CARTESIAN_POINT ( 'NONE',  ( -5.245682214823973110E-31, 1.839937639723126814E-32, -1.502423099463586467E-16 ) ) ;
#210 = ADVANCED_FACE ( 'NONE', ( #212, #282 ), #75, .T. ) ;
#211 = EDGE_LOOP ( 'NONE', ( #124 ) ) ;
#212 = FACE_OUTER_BOUND ( 'NONE', #288, .T. ) ;
#213 = ORIENTED_EDGE ( 'NONE', *, *, #15, .T. ) ;
#214 = CIRCLE ( 'NONE', #233, 0.7841624327025945584 ) ;
#215 = CC_DESIGN_APPROVAL ( #4, ( #264 ) ) ;
#216 = APPROVAL_ROLE ( '' ) ;
#217 = DIRECTION ( 'NONE',  ( 0.0000000000000000000, 1.000000000000000000, 0.0000000000000000000 ) ) ;
#218 = CARTESIAN_POINT ( 'NONE',  ( 2.793185071074506684E-14, -9.797174393178825657E-16, 8.000000000000000000 ) ) ;
#219 = APPROVAL_STATUS ( 'not_yet_approved' ) ;
#220 = VERTEX_POINT ( 'NONE', #207 ) ;
#221 = DIRECTION ( 'NONE',  ( -3.491481338843133355E-15, 1.224646799147353207E-16, -1.000000000000000000 ) ) ;
#222 = CC_DESIGN_DATE_AND_TIME_ASSIGNMENT ( #59, #130, ( #264 ) ) ;
#223 = APPLICATION_PROTOCOL_DEFINITION ( 'international standard', 'config_control_design', 1994, #121 ) ;
#224 = CIRCLE ( 'NONE', #97, 1.499999999999996669 ) ;
#225 = DIRECTION ( 'NONE',  ( -4.275831445896958607E-31, -1.000000000000000000, -1.224646799147353207E-16 ) ) ;
#226 = DIRECTION ( 'NONE',  ( 0.0000000000000000000, -1.000000000000000000, 0.0000000000000000000 ) ) ;
#227 = AXIS2_PLACEMENT_3D ( 'NONE', #196, #57, #184 ) ;
#228 = APPROVAL_PERSON_ORGANIZATION ( #90, #4, #162 ) ;
#229 = CALENDAR_DATE ( 2021, 30, 11 ) ;
#230 = ADVANCED_FACE ( 'NONE', ( #258, #52 ), #149, .T. ) ;
#231 = UNCERTAINTY_MEASURE_WITH_UNIT (LENGTH_MEASURE( 1.000000000000000082E-05 ), #185, 'distance_accuracy_value', 'NONE');
#232 = PRODUCT_RELATED_PRODUCT_CATEGORY ( 'detail', '', ( #239 ) ) ;
#233 = AXIS2_PLACEMENT_3D ( 'NONE', #209, #293, #301 ) ;
#234 = ORIENTED_EDGE ( 'NONE', *, *, #46, .T. ) ;
#235 = CC_DESIGN_APPROVAL ( #20, ( #91 ) ) ;
#236 = EDGE_LOOP ( 'NONE', ( #303 ) ) ;
#237 = CARTESIAN_POINT ( 'NONE',  ( 0.0000000000000000000, 0.0000000000000000000, 0.0000000000000000000 ) ) ;
#238 = EDGE_LOOP ( 'NONE', ( #129 ) ) ;
#239 = PRODUCT ( '200113', '200113', '', ( #241 ) ) ;
#240 = APPROVAL_STATUS ( 'not_yet_approved' ) ;
#241 = MECHANICAL_CONTEXT ( 'NONE', #121, 'mechanical' ) ;
#242 = DIRECTION ( 'NONE',  ( 4.275831445896958607E-31, 1.000000000000000000, 1.224646799147353454E-16 ) ) ;
#243 = COORDINATED_UNIVERSAL_TIME_OFFSET ( 1, 0, .AHEAD. ) ;
#244 = CIRCLE ( 'NONE', #164, 0.8249999999999996225 ) ;
#245 = VERTEX_POINT ( 'NONE', #267 ) ;
#246 = MANIFOLD_SOLID_BREP ( 'Corps-Déplacer/Copier1[1]', #292 ) ;
#247 = LOCAL_TIME ( 9, 32, 33.00000000000000000, #17 ) ;
#248 = DIRECTION ( 'NONE',  ( 3.491481338843133355E-15, -1.224646799147353207E-16, 1.000000000000000000 ) ) ;
#249 = PERSON_AND_ORGANIZATION_ROLE ( 'classification_officer' ) ;
#250 = ADVANCED_FACE ( 'NONE', ( #143 ), #271, .F. ) ;
#251 =( NAMED_UNIT ( * ) SI_UNIT ( $, .STERADIAN. ) SOLID_ANGLE_UNIT ( ) );
#252 = CARTESIAN_POINT ( 'NONE',  ( 2.793185071074506684E-14, 0.9284999999999991038, 8.000000000000000000 ) ) ;
#253 = CLOSED_SHELL ( 'NONE', ( #250, #1, #102, #276 ) ) ;
#254 = CARTESIAN_POINT ( 'NONE',  ( 8.728703347107829444E-16, -3.061616997868381785E-17, 0.2499999999999998890 ) ) ;
#255 = AXIS2_PLACEMENT_3D ( 'NONE', #67, #208, #217 ) ;
#256 = LOCAL_TIME ( 9, 32, 33.00000000000000000, #142 ) ;
#257 = ORIENTED_EDGE ( 'NONE', *, *, #15, .F. ) ;
#258 = FACE_OUTER_BOUND ( 'NONE', #238, .T. ) ;
#259 = ORIENTED_EDGE ( 'NONE', *, *, #41, .F. ) ;
#260 = CIRCLE ( 'NONE', #272, 1.500000000000001554 ) ;
#261 = CONICAL_SURFACE ( 'NONE', #155, 0.9285000000000001030, 0.5235987755982973724 ) ;
#262 = VERTEX_POINT ( 'NONE', #140 ) ;
#263 = FACE_OUTER_BOUND ( 'NONE', #53, .T. ) ;
#264 = PRODUCT_DEFINITION ( 'UNKNOWN', '', #284, #98 ) ;
#265 = DIRECTION ( 'NONE',  ( -3.491481338843133355E-15, 1.224646799147353207E-16, -1.000000000000000000 ) ) ;
#266 = DIRECTION ( 'NONE',  ( 1.000000000000000000, 0.0000000000000000000, 0.0000000000000000000 ) ) ;
#267 = CARTESIAN_POINT ( 'NONE',  ( 5.935518276033326704E-14, 0.8249999999999976241, 17.00000000000000000 ) ) ;
#268 = FACE_OUTER_BOUND ( 'NONE', #79, .T. ) ;
#269 = SECURITY_CLASSIFICATION_LEVEL ( 'unclassified' ) ;
#270 = AXIS2_PLACEMENT_3D ( 'NONE', #116, #92, #225 ) ;
#271 = PLANE ( 'NONE',  #270 ) ;
#272 = AXIS2_PLACEMENT_3D ( 'NONE', #18, #273, #299 ) ;
#273 = DIRECTION ( 'NONE',  ( -3.491481338843133355E-15, 1.224646799147353207E-16, -1.000000000000000000 ) ) ;
#274 = DIRECTION ( 'NONE',  ( -3.491481338843133355E-15, 1.224646799147353207E-16, -1.000000000000000000 ) ) ;
#275 = AXIS2_PLACEMENT_3D ( 'NONE', #32, #78, #133 ) ;
#276 = ADVANCED_FACE ( 'NONE', ( #63 ), #206, .T. ) ;
#277 = FACE_BOUND ( 'NONE', #31, .T. ) ;
#278 = CALENDAR_DATE ( 2021, 30, 11 ) ;
#279 = DIRECTION ( 'NONE',  ( 3.491481338843133355E-15, -1.224646799147353207E-16, 1.000000000000000000 ) ) ;
#280 = LOCAL_TIME ( 9, 32, 33.00000000000000000, #243 ) ;
#281 = EDGE_CURVE ( 'NONE', #112, #112, #224, .T. ) ;
#282 = FACE_OUTER_BOUND ( 'NONE', #287, .T. ) ;
#283 = ORIENTED_EDGE ( 'NONE', *, *, #281, .T. ) ;
#284 = PRODUCT_DEFINITION_FORMATION_WITH_SPECIFIED_SOURCE ( 'ANY', '', #239, .NOT_KNOWN. ) ;
#285 = CARTESIAN_POINT ( 'NONE',  ( 5.935518276033326704E-14, -2.081899558550500280E-15, 17.00000000000000000 ) ) ;
#286 = CC_DESIGN_DATE_AND_TIME_ASSIGNMENT ( #86, #180, ( #91 ) ) ;
#287 = EDGE_LOOP ( 'NONE', ( #257 ) ) ;
#288 = EDGE_LOOP ( 'NONE', ( #5 ) ) ;
#289 = DIRECTION ( 'NONE',  ( -3.491481338843133355E-15, 1.224646799147353207E-16, -1.000000000000000000 ) ) ;
#290 = AXIS2_PLACEMENT_3D ( 'NONE', #302, #35, #44 ) ;
#291 = PLANE ( 'NONE',  #275 ) ;
#292 = CLOSED_SHELL ( 'NONE', ( #96, #3, #210, #104, #30, #122, #230, #163 ) ) ;
#293 = DIRECTION ( 'NONE',  ( -3.491481338843133355E-15, 1.224646799147353207E-16, -1.000000000000000000 ) ) ;
#294 = PERSON_AND_ORGANIZATION ( #154, #115 ) ;
#295 = CARTESIAN_POINT ( 'NONE',  ( 0.0000000000000000000, 0.0000000000000000000, 0.0000000000000000000 ) ) ;
#296 = DIRECTION ( 'NONE',  ( 0.0000000000000000000, 1.000000000000000000, 0.0000000000000000000 ) ) ;
#297 = FACE_BOUND ( 'NONE', #170, .T. ) ;
#298 = APPLICATION_PROTOCOL_DEFINITION ( 'international standard', 'config_control_design', 1994, #148 ) ;
#299 = DIRECTION ( 'NONE',  ( 0.0000000000000000000, 1.000000000000000000, 0.0000000000000000000 ) ) ;
#300 = EDGE_CURVE ( 'NONE', #262, #262, #260, .T. ) ;
#301 = DIRECTION ( 'NONE',  ( 4.275831445896958607E-31, 1.000000000000000000, 1.224646799147353207E-16 ) ) ;
#302 = CARTESIAN_POINT ( 'NONE',  ( 1.745740669421566678E-13, -6.123233995736766085E-15, 50.00000000000000000 ) ) ;
#303 = ORIENTED_EDGE ( 'NONE', *, *, #23, .T. ) ;
ENDSEC;
END-ISO-10303-21;
