ISO-10303-21;
HEADER;
FILE_DESCRIPTION (( 'STEP AP203' ),
    '1' );
FILE_NAME ('200112.step',
    '2021-10-12T09:09:03',
    ( '' ),
    ( '' ),
    'SwSTEP 2.0',
    'SolidWorks 2019',
    '' );
FILE_SCHEMA (( 'CONFIG_CONTROL_DESIGN' ));
ENDSEC;

DATA;
#1 = COORDINATED_UNIVERSAL_TIME_OFFSET ( 1, 0, .AHEAD. ) ;
#2 = CIRCLE ( 'NONE', #159, 1.499999999999998446 ) ;
#3 = DATE_AND_TIME ( #166, #60 ) ;
#4 = DATE_AND_TIME ( #17, #124 ) ;
#5 = APPROVAL_PERSON_ORGANIZATION ( #115, #202, #204 ) ;
#6 = EDGE_LOOP ( 'NONE', ( #154 ) ) ;
#7 = EDGE_LOOP ( 'NONE', ( #177 ) ) ;
#8 = CARTESIAN_POINT ( 'NONE',  ( 1.138931345331208679E-15, -3.994833399197266607E-17, 0.3262029020921480837 ) ) ;
#9 = DIRECTION ( 'NONE',  ( 3.491481338843133355E-15, -1.224646799147353207E-16, 1.000000000000000000 ) ) ;
#10 = CARTESIAN_POINT ( 'NONE',  ( 1.326762908760390423E-13, -4.653657836759941941E-15, 38.00000000000000000 ) ) ;
#11 = DIRECTION ( 'NONE',  ( -3.491481338843133355E-15, 1.229791517316362731E-16, -1.000000000000000000 ) ) ;
#12 = PRODUCT_RELATED_PRODUCT_CATEGORY ( 'detail', '', ( #192 ) ) ;
#13 = VERTEX_POINT ( 'NONE', #164 ) ;
#14 = DIRECTION ( 'NONE',  ( 0.0000000000000000000, 1.000000000000000000, 0.0000000000000000000 ) ) ;
#15 = VERTEX_POINT ( 'NONE', #33 ) ;
#16 = DESIGN_CONTEXT ( 'detailed design', #126, 'design' ) ;
#17 = CALENDAR_DATE ( 2021, 12, 10 ) ;
#18 = CC_DESIGN_DATE_AND_TIME_ASSIGNMENT ( #205, #19, ( #55 ) ) ;
#19 = DATE_TIME_ROLE ( 'classification_date' ) ;
#20 = PERSON_AND_ORGANIZATION_ROLE ( 'design_supplier' ) ;
#21 = CC_DESIGN_PERSON_AND_ORGANIZATION_ASSIGNMENT ( #223, #20, ( #121 ) ) ;
#22 = APPROVAL_DATE_TIME ( #4, #56 ) ;
#23 = CIRCLE ( 'NONE', #73, 0.5650000000000100497 ) ;
#24 = ADVANCED_FACE ( 'NONE', ( #44 ), #219, .T. ) ;
#25 = ORIENTED_EDGE ( 'NONE', *, *, #30, .T. ) ;
#26 = APPROVAL_PERSON_ORGANIZATION ( #171, #56, #102 ) ;
#27 = CC_DESIGN_PERSON_AND_ORGANIZATION_ASSIGNMENT ( #85, #169, ( #121 ) ) ;
#28 = DIRECTION ( 'NONE',  ( 0.0000000000000000000, 1.000000000000000000, 0.0000000000000000000 ) ) ;
#29 = FACE_OUTER_BOUND ( 'NONE', #142, .T. ) ;
#30 = EDGE_CURVE ( 'NONE', #161, #161, #147, .T. ) ;
#31 = APPROVAL_PERSON_ORGANIZATION ( #70, #183, #188 ) ;
#32 = DIRECTION ( 'NONE',  ( 0.0000000000000000000, 1.000000000000000000, 0.0000000000000000000 ) ) ;
#33 = CARTESIAN_POINT ( 'NONE',  ( 1.326762908760390423E-13, 1.199999999999995293, 38.00000000000000000 ) ) ;
#34 = CARTESIAN_POINT ( 'NONE',  ( 3.707767262242696289E-14, -1.305973105616030190E-15, 10.61946750507687653 ) ) ;
#35 = CC_DESIGN_PERSON_AND_ORGANIZATION_ASSIGNMENT ( #71, #151, ( #192 ) ) ;
#36 = COORDINATED_UNIVERSAL_TIME_OFFSET ( 1, 0, .AHEAD. ) ;
#37 = APPROVAL_STATUS ( 'not_yet_approved' ) ;
#38 = DIRECTION ( 'NONE',  ( 1.000000000000000000, 0.0000000000000000000, 0.0000000000000000000 ) ) ;
#39 =( NAMED_UNIT ( * ) SI_UNIT ( $, .STERADIAN. ) SOLID_ANGLE_UNIT ( ) );
#40 = LOCAL_TIME ( 11, 9, 3.000000000000000000, #136 ) ;
#41 = AXIS2_PLACEMENT_3D ( 'NONE', #196, #182, #64 ) ;
#42 = PRODUCT_DEFINITION ( 'UNKNOWN', '', #121, #16 ) ;
#43 = EDGE_LOOP ( 'NONE', ( #107 ) ) ;
#44 = FACE_OUTER_BOUND ( 'NONE', #75, .T. ) ;
#45 = DIRECTION ( 'NONE',  ( 4.275831445896958607E-31, 1.000000000000000000, 1.224646799147353207E-16 ) ) ;
#46 = EDGE_CURVE ( 'NONE', #50, #50, #209, .T. ) ;
#47 = CYLINDRICAL_SURFACE ( 'NONE', #41, 1.499999999999998224 ) ;
#48 = LOCAL_TIME ( 11, 9, 3.000000000000000000, #54 ) ;
#49 = DIRECTION ( 'NONE',  ( -4.275831445896958607E-31, -1.000000000000000000, -1.224646799147353207E-16 ) ) ;
#50 = VERTEX_POINT ( 'NONE', #112 ) ;
#51 = DIRECTION ( 'NONE',  ( 0.0000000000000000000, 1.000000000000000000, 0.0000000000000000000 ) ) ;
#52 = AXIS2_PLACEMENT_3D ( 'NONE', #8, #212, #77 ) ;
#53 = MECHANICAL_CONTEXT ( 'NONE', #89, 'mechanical' ) ;
#54 = COORDINATED_UNIVERSAL_TIME_OFFSET ( 1, 0, .AHEAD. ) ;
#55 = SECURITY_CLASSIFICATION ( '', '', #72 ) ;
#56 = APPROVAL ( #37, 'UNSPECIFIED' ) ;
#57 = ORIENTED_EDGE ( 'NONE', *, *, #123, .T. ) ;
#58 = AXIS2_PLACEMENT_3D ( 'NONE', #10, #78, #32 ) ;
#59 = CLOSED_SHELL ( 'NONE', ( #206, #104, #24 ) ) ;
#60 = LOCAL_TIME ( 11, 9, 3.000000000000000000, #1 ) ;
#61 = FACE_OUTER_BOUND ( 'NONE', #7, .T. ) ;
#62 = ADVANCED_FACE ( 'NONE', ( #61 ), #113, .F. ) ;
#63 = DIRECTION ( 'NONE',  ( -3.491481338843133355E-15, 1.229791517316362731E-16, -1.000000000000000000 ) ) ;
#64 = DIRECTION ( 'NONE',  ( 4.275831445896958607E-31, 1.000000000000000000, 1.224646799147353207E-16 ) ) ;
#65 = CARTESIAN_POINT ( 'NONE',  ( 3.142333204958820020E-14, -1.106812365584726482E-15, 9.000000000000000000 ) ) ;
#66 = ADVANCED_FACE ( 'NONE', ( #131, #158 ), #221, .T. ) ;
#67 = DIRECTION ( 'NONE',  ( 3.491481338843133355E-15, -1.224646799147353207E-16, 1.000000000000000000 ) ) ;
#68 =( NAMED_UNIT ( * ) PLANE_ANGLE_UNIT ( ) SI_UNIT ( $, .RADIAN. ) );
#69 = MANIFOLD_SOLID_BREP ( 'Corps-Déplacer/Copier1[1]', #118 ) ;
#70 = PERSON_AND_ORGANIZATION ( #173, #129 ) ;
#71 = PERSON_AND_ORGANIZATION ( #173, #129 ) ;
#72 = SECURITY_CLASSIFICATION_LEVEL ( 'unclassified' ) ;
#73 = AXIS2_PLACEMENT_3D ( 'NONE', #157, #63, #14 ) ;
#74 = CARTESIAN_POINT ( 'NONE',  ( 3.023711536277482633E-15, -1.060575238724915913E-16, 0.8660254037844459241 ) ) ;
#75 = EDGE_LOOP ( 'NONE', ( #25 ) ) ;
#76 = AXIS2_PLACEMENT_3D ( 'NONE', #110, #67, #49 ) ;
#77 = DIRECTION ( 'NONE',  ( -3.408725565287082633E-31, -1.000000000000000000, -9.594709491021992926E-17 ) ) ;
#78 = DIRECTION ( 'NONE',  ( -3.491481338843133355E-15, 1.224646799147353207E-16, -1.000000000000000000 ) ) ;
#79 = CONICAL_SURFACE ( 'NONE', #189, 1.199999999999999956, 0.7853981633974453924 ) ;
#80 = CARTESIAN_POINT ( 'NONE',  ( 1.326762908760390423E-13, -4.653657836759941941E-15, 38.00000000000000000 ) ) ;
#81 = FACE_OUTER_BOUND ( 'NONE', #6, .T. ) ;
#82 = DIRECTION ( 'NONE',  ( 3.491481338843133355E-15, -1.224646799147353207E-16, 1.000000000000000000 ) ) ;
#83 = AXIS2_PLACEMENT_3D ( 'NONE', #222, #200, #28 ) ;
#84 = VERTEX_POINT ( 'NONE', #98 ) ;
#85 = PERSON_AND_ORGANIZATION ( #173, #129 ) ;
#86 = APPROVAL_STATUS ( 'not_yet_approved' ) ;
#87 = ADVANCED_BREP_SHAPE_REPRESENTATION ( '200112', ( #69, #210, #172 ), #96 ) ;
#88 = APPROVAL_STATUS ( 'not_yet_approved' ) ;
#89 = APPLICATION_CONTEXT ( 'configuration controlled 3d designs of mechanical parts and assemblies' ) ;
#90 = EDGE_CURVE ( 'NONE', #184, #184, #165, .T. ) ;
#91 = ORIENTED_EDGE ( 'NONE', *, *, #46, .T. ) ;
#92 = EDGE_LOOP ( 'NONE', ( #91 ) ) ;
#93 = CC_DESIGN_PERSON_AND_ORGANIZATION_ASSIGNMENT ( #103, #150, ( #42 ) ) ;
#94 = DIRECTION ( 'NONE',  ( 0.0000000000000000000, -1.000000000000000000, 0.0000000000000000000 ) ) ;
#95 = PLANE ( 'NONE',  #76 ) ;
#96 =( GEOMETRIC_REPRESENTATION_CONTEXT ( 3 ) GLOBAL_UNCERTAINTY_ASSIGNED_CONTEXT ( ( #215 ) ) GLOBAL_UNIT_ASSIGNED_CONTEXT ( ( #203, #68, #39 ) ) REPRESENTATION_CONTEXT ( 'NONE', 'WORKASPACE' ) );
#97 = DIRECTION ( 'NONE',  ( -4.275831445896958607E-31, -1.000000000000000000, -1.224646799147353207E-16 ) ) ;
#98 = CARTESIAN_POINT ( 'NONE',  ( 3.707767262242696289E-14, 1.499999999999997113, 10.61946750507687653 ) ) ;
#99 = FACE_BOUND ( 'NONE', #43, .T. ) ;
#100 = AXIS2_PLACEMENT_3D ( 'NONE', #180, #194, #45 ) ;
#101 = DATE_AND_TIME ( #105, #119 ) ;
#102 = APPROVAL_ROLE ( '' ) ;
#103 = PERSON_AND_ORGANIZATION ( #173, #129 ) ;
#104 = ADVANCED_FACE ( 'NONE', ( #217, #218 ), #220, .T. ) ;
#105 = CALENDAR_DATE ( 2021, 12, 10 ) ;
#106 = SHAPE_DEFINITION_REPRESENTATION ( #214, #87 ) ;
#107 = ORIENTED_EDGE ( 'NONE', *, *, #163, .T. ) ;
#108 = ADVANCED_FACE ( 'NONE', ( #149, #99 ), #79, .T. ) ;
#109 = CARTESIAN_POINT ( 'NONE',  ( 3.707767262242696289E-14, -1.305973105616030190E-15, 10.61946750507687653 ) ) ;
#110 = CARTESIAN_POINT ( 'NONE',  ( 3.142333204958820020E-14, 1.124819836996388964E-32, 9.000000000000000000 ) ) ;
#111 = DIRECTION ( 'NONE',  ( 3.491481338843133355E-15, -1.229791517316362731E-16, 1.000000000000000000 ) ) ;
#112 = CARTESIAN_POINT ( 'NONE',  ( 3.142333204958820020E-14, 0.5650000000000089395, 9.000000000000000000 ) ) ;
#113 = PLANE ( 'NONE',  #100 ) ;
#114 = AXIS2_PLACEMENT_3D ( 'NONE', #109, #111, #94 ) ;
#115 = PERSON_AND_ORGANIZATION ( #173, #129 ) ;
#116 = APPROVAL_DATE_TIME ( #101, #202 ) ;
#117 = COORDINATED_UNIVERSAL_TIME_OFFSET ( 1, 0, .AHEAD. ) ;
#118 = CLOSED_SHELL ( 'NONE', ( #168, #108, #62, #66, #132 ) ) ;
#119 = LOCAL_TIME ( 11, 9, 3.000000000000000000, #36 ) ;
#120 = DATE_AND_TIME ( #134, #48 ) ;
#121 = PRODUCT_DEFINITION_FORMATION_WITH_SPECIFIED_SOURCE ( 'ANY', '', #192, .NOT_KNOWN. ) ;
#122 = ORIENTED_EDGE ( 'NONE', *, *, #198, .T. ) ;
#123 = EDGE_CURVE ( 'NONE', #13, #13, #23, .T. ) ;
#124 = LOCAL_TIME ( 11, 9, 3.000000000000000000, #117 ) ;
#125 = DIRECTION ( 'NONE',  ( -3.491481338843133355E-15, 1.229791517316362731E-16, -1.000000000000000000 ) ) ;
#126 = APPLICATION_CONTEXT ( 'configuration controlled 3d designs of mechanical parts and assemblies' ) ;
#127 = CARTESIAN_POINT ( 'NONE',  ( 3.142333204958820020E-14, 1.124819836996388964E-32, 9.000000000000000000 ) ) ;
#128 = CARTESIAN_POINT ( 'NONE',  ( 1.138931345331208482E-15, -0.5650000000000100497, 0.3262029020921480282 ) ) ;
#129 = ORGANIZATION ( 'UNSPECIFIED', 'UNSPECIFIED', '' ) ;
#130 = DIRECTION ( 'NONE',  ( -3.491481338843133355E-15, 1.229791517316362731E-16, -1.000000000000000000 ) ) ;
#131 = FACE_BOUND ( 'NONE', #193, .T. ) ;
#132 = ADVANCED_FACE ( 'NONE', ( #29 ), #95, .F. ) ;
#133 = PERSON_AND_ORGANIZATION_ROLE ( 'classification_officer' ) ;
#134 = CALENDAR_DATE ( 2021, 12, 10 ) ;
#135 = CC_DESIGN_PERSON_AND_ORGANIZATION_ASSIGNMENT ( #137, #133, ( #55 ) ) ;
#136 = COORDINATED_UNIVERSAL_TIME_OFFSET ( 1, 0, .AHEAD. ) ;
#137 = PERSON_AND_ORGANIZATION ( #173, #129 ) ;
#138 = AXIS2_PLACEMENT_3D ( 'NONE', #74, #9, #155 ) ;
#139 = DIRECTION ( 'NONE',  ( 0.0000000000000000000, 0.0000000000000000000, 1.000000000000000000 ) ) ;
#140 = ORIENTED_EDGE ( 'NONE', *, *, #90, .F. ) ;
#141 = CIRCLE ( 'NONE', #58, 1.199999999999999956 ) ;
#142 = EDGE_LOOP ( 'NONE', ( #57 ) ) ;
#143 = FACE_OUTER_BOUND ( 'NONE', #176, .T. ) ;
#144 = DIRECTION ( 'NONE',  ( 4.293794133377662246E-31, 1.000000000000000000, 1.229791517316362731E-16 ) ) ;
#145 = DIRECTION ( 'NONE',  ( -3.491481338843133355E-15, 1.224646799147353207E-16, -1.000000000000000000 ) ) ;
#146 = CARTESIAN_POINT ( 'NONE',  ( 1.316288464743861212E-13, 1.499999999999995337, 37.69999999999999574 ) ) ;
#147 = CIRCLE ( 'NONE', #52, 0.5650000000000100497 ) ;
#148 = CC_DESIGN_APPROVAL ( #56, ( #121 ) ) ;
#149 = FACE_OUTER_BOUND ( 'NONE', #174, .T. ) ;
#150 = PERSON_AND_ORGANIZATION_ROLE ( 'creator' ) ;
#151 = PERSON_AND_ORGANIZATION_ROLE ( 'design_owner' ) ;
#152 = AXIS2_PLACEMENT_3D ( 'NONE', #127, #82, #97 ) ;
#153 = ORIENTED_EDGE ( 'NONE', *, *, #123, .F. ) ;
#154 = ORIENTED_EDGE ( 'NONE', *, *, #46, .F. ) ;
#155 = DIRECTION ( 'NONE',  ( -5.135813185032644414E-31, -1.000000000000000000, -1.445602896647343601E-16 ) ) ;
#156 = ORIENTED_EDGE ( 'NONE', *, *, #30, .F. ) ;
#157 = CARTESIAN_POINT ( 'NONE',  ( 3.142333204958820020E-14, -1.106812365584726482E-15, 9.000000000000000000 ) ) ;
#158 = FACE_OUTER_BOUND ( 'NONE', #191, .T. ) ;
#159 = AXIS2_PLACEMENT_3D ( 'NONE', #34, #11, #162 ) ;
#160 = CC_DESIGN_DATE_AND_TIME_ASSIGNMENT ( #3, #170, ( #42 ) ) ;
#161 = VERTEX_POINT ( 'NONE', #128 ) ;
#162 = DIRECTION ( 'NONE',  ( 0.0000000000000000000, 1.000000000000000000, 0.0000000000000000000 ) ) ;
#163 = EDGE_CURVE ( 'NONE', #15, #15, #141, .T. ) ;
#164 = CARTESIAN_POINT ( 'NONE',  ( 3.142333204958820020E-14, 0.5650000000000089395, 9.000000000000000000 ) ) ;
#165 = CIRCLE ( 'NONE', #83, 1.499999999999999778 ) ;
#166 = CALENDAR_DATE ( 2021, 12, 10 ) ;
#167 = CALENDAR_DATE ( 2021, 12, 10 ) ;
#168 = ADVANCED_FACE ( 'NONE', ( #199, #143 ), #47, .T. ) ;
#169 = PERSON_AND_ORGANIZATION_ROLE ( 'creator' ) ;
#170 = DATE_TIME_ROLE ( 'creation_date' ) ;
#171 = PERSON_AND_ORGANIZATION ( #173, #129 ) ;
#172 = AXIS2_PLACEMENT_3D ( 'NONE', #187, #139, #38 ) ;
#173 = PERSON ( 'UNSPECIFIED', 'UNSPECIFIED', 'UNSPECIFIED', ('UNSPECIFIED'), ('UNSPECIFIED'), ('UNSPECIFIED') ) ;
#174 = EDGE_LOOP ( 'NONE', ( #140 ) ) ;
#175 = APPROVAL_DATE_TIME ( #120, #183 ) ;
#176 = EDGE_LOOP ( 'NONE', ( #208 ) ) ;
#177 = ORIENTED_EDGE ( 'NONE', *, *, #163, .F. ) ;
#178 = AXIS2_PLACEMENT_3D ( 'NONE', #65, #125, #216 ) ;
#179 = CC_DESIGN_SECURITY_CLASSIFICATION ( #55, ( #121 ) ) ;
#180 = CARTESIAN_POINT ( 'NONE',  ( 1.326762908760390423E-13, 8.998558695971077224E-33, 38.00000000000000000 ) ) ;
#181 = CARTESIAN_POINT ( 'NONE',  ( 0.0000000000000000000, 0.0000000000000000000, 0.0000000000000000000 ) ) ;
#182 = DIRECTION ( 'NONE',  ( -3.491481338843133355E-15, 1.224646799147353207E-16, -1.000000000000000000 ) ) ;
#183 = APPROVAL ( #86, 'UNSPECIFIED' ) ;
#184 = VERTEX_POINT ( 'NONE', #146 ) ;
#185 = APPLICATION_PROTOCOL_DEFINITION ( 'international standard', 'config_control_design', 1994, #89 ) ;
#186 = AXIS2_PLACEMENT_3D ( 'NONE', #181, #130, #144 ) ;
#187 = CARTESIAN_POINT ( 'NONE',  ( 0.0000000000000000000, 0.0000000000000000000, 0.0000000000000000000 ) ) ;
#188 = APPROVAL_ROLE ( '' ) ;
#189 = AXIS2_PLACEMENT_3D ( 'NONE', #80, #145, #51 ) ;
#190 = EDGE_LOOP ( 'NONE', ( #156 ) ) ;
#191 = EDGE_LOOP ( 'NONE', ( #122 ) ) ;
#192 = PRODUCT ( '200112', '200112', '', ( #53 ) ) ;
#193 = EDGE_LOOP ( 'NONE', ( #153 ) ) ;
#194 = DIRECTION ( 'NONE',  ( -3.491481338843133355E-15, 1.224646799147353207E-16, -1.000000000000000000 ) ) ;
#195 = PLANE ( 'NONE',  #152 ) ;
#196 = CARTESIAN_POINT ( 'NONE',  ( 0.0000000000000000000, 0.0000000000000000000, 0.0000000000000000000 ) ) ;
#197 = CC_DESIGN_APPROVAL ( #183, ( #55 ) ) ;
#198 = EDGE_CURVE ( 'NONE', #84, #84, #2, .T. ) ;
#199 = FACE_OUTER_BOUND ( 'NONE', #211, .T. ) ;
#200 = DIRECTION ( 'NONE',  ( -3.491481338843133355E-15, 1.224646799147353207E-16, -1.000000000000000000 ) ) ;
#201 = APPLICATION_PROTOCOL_DEFINITION ( 'international standard', 'config_control_design', 1994, #126 ) ;
#202 = APPROVAL ( #88, 'UNSPECIFIED' ) ;
#203 =( LENGTH_UNIT ( ) NAMED_UNIT ( * ) SI_UNIT ( .MILLI., .METRE. ) );
#204 = APPROVAL_ROLE ( '' ) ;
#205 = DATE_AND_TIME ( #167, #40 ) ;
#206 = ADVANCED_FACE ( 'NONE', ( #81 ), #195, .T. ) ;
#207 = CC_DESIGN_APPROVAL ( #202, ( #42 ) ) ;
#208 = ORIENTED_EDGE ( 'NONE', *, *, #90, .T. ) ;
#209 = CIRCLE ( 'NONE', #178, 0.5650000000000100497 ) ;
#210 = MANIFOLD_SOLID_BREP ( 'Corps-Déplacer/Copier1[2]', #59 ) ;
#211 = EDGE_LOOP ( 'NONE', ( #213 ) ) ;
#212 = DIRECTION ( 'NONE',  ( -3.491481338843133355E-15, 1.224646799147353207E-16, -1.000000000000000000 ) ) ;
#213 = ORIENTED_EDGE ( 'NONE', *, *, #198, .F. ) ;
#214 = PRODUCT_DEFINITION_SHAPE ( 'NONE', 'NONE',  #42 ) ;
#215 = UNCERTAINTY_MEASURE_WITH_UNIT (LENGTH_MEASURE( 1.000000000000000082E-05 ), #203, 'distance_accuracy_value', 'NONE');
#216 = DIRECTION ( 'NONE',  ( 0.0000000000000000000, 1.000000000000000000, 0.0000000000000000000 ) ) ;
#217 = FACE_OUTER_BOUND ( 'NONE', #92, .T. ) ;
#218 = FACE_OUTER_BOUND ( 'NONE', #190, .T. ) ;
#219 = CONICAL_SURFACE ( 'NONE', #138, 1.499999999999995559, 1.047197551196592746 ) ;
#220 = CYLINDRICAL_SURFACE ( 'NONE', #186, 0.5650000000000100497 ) ;
#221 = CONICAL_SURFACE ( 'NONE', #114, 1.499999999999998446, 0.5235987755982995928 ) ;
#222 = CARTESIAN_POINT ( 'NONE',  ( 1.316288464743861212E-13, -4.616918432785521081E-15, 37.69999999999999574 ) ) ;
#223 = PERSON_AND_ORGANIZATION ( #173, #129 ) ;
ENDSEC;
END-ISO-10303-21;
