ISO-10303-21;
HEADER;
FILE_DESCRIPTION (( 'STEP AP203' ),
    '1' );
FILE_NAME ('200111.step',
    '2021-11-30T08:32:32',
    ( '' ),
    ( '' ),
    'SwSTEP 2.0',
    'SolidWorks 2019',
    '' );
FILE_SCHEMA (( 'CONFIG_CONTROL_DESIGN' ));
ENDSEC;

DATA;
#1 = DIRECTION ( 'NONE',  ( -4.793851759520194573E-31, -1.000000000000000000, -1.349349312365284055E-16 ) ) ;
#2 = ADVANCED_FACE ( 'NONE', ( #162, #113 ), #276, .T. ) ;
#3 = DIRECTION ( 'NONE',  ( -3.491481338843133355E-15, 1.224646799147353207E-16, -1.000000000000000000 ) ) ;
#4 = CIRCLE ( 'NONE', #89, 0.7303844939755805843 ) ;
#5 = PLANE ( 'NONE',  #72 ) ;
#6 = VERTEX_POINT ( 'NONE', #191 ) ;
#7 = CARTESIAN_POINT ( 'NONE',  ( 0.0000000000000000000, 0.0000000000000000000, 0.0000000000000000000 ) ) ;
#8 = CC_DESIGN_APPROVAL ( #50, ( #84 ) ) ;
#9 = APPROVAL_ROLE ( '' ) ;
#10 = EDGE_LOOP ( 'NONE', ( #138 ) ) ;
#11 = VERTEX_POINT ( 'NONE', #236 ) ;
#12 = AXIS2_PLACEMENT_3D ( 'NONE', #269, #62, #108 ) ;
#13 = PLANE ( 'NONE',  #12 ) ;
#14 = PERSON_AND_ORGANIZATION_ROLE ( 'creator' ) ;
#15 = EDGE_LOOP ( 'NONE', ( #230 ) ) ;
#16 = EDGE_CURVE ( 'NONE', #177, #177, #79, .T. ) ;
#17 = CALENDAR_DATE ( 2021, 30, 11 ) ;
#18 = COORDINATED_UNIVERSAL_TIME_OFFSET ( 1, 0, .AHEAD. ) ;
#19 = ORIENTED_EDGE ( 'NONE', *, *, #124, .T. ) ;
#20 = EDGE_CURVE ( 'NONE', #43, #43, #88, .T. ) ;
#21 = FACE_OUTER_BOUND ( 'NONE', #225, .T. ) ;
#22 = AXIS2_PLACEMENT_3D ( 'NONE', #165, #49, #282 ) ;
#23 = CARTESIAN_POINT ( 'NONE',  ( 0.0000000000000000000, 0.0000000000000000000, 0.0000000000000000000 ) ) ;
#24 = AXIS2_PLACEMENT_3D ( 'NONE', #27, #192, #118 ) ;
#25 = CARTESIAN_POINT ( 'NONE',  ( -4.711203284086852627E-31, 1.652467666890394340E-32, -1.349342249570167039E-16 ) ) ;
#26 = PRODUCT_DEFINITION_SHAPE ( 'NONE', 'NONE',  #84 ) ;
#27 = CARTESIAN_POINT ( 'NONE',  ( 1.745740669421566678E-13, -6.123233995736766085E-15, 50.00000000000000000 ) ) ;
#28 = FACE_BOUND ( 'NONE', #85, .T. ) ;
#29 = VERTEX_POINT ( 'NONE', #121 ) ;
#30 = AXIS2_PLACEMENT_3D ( 'NONE', #227, #175, #240 ) ;
#31 = EDGE_CURVE ( 'NONE', #183, #183, #130, .T. ) ;
#32 = DIRECTION ( 'NONE',  ( 0.0000000000000000000, 1.000000000000000000, 0.0000000000000000000 ) ) ;
#33 = CALENDAR_DATE ( 2021, 30, 11 ) ;
#34 = DIRECTION ( 'NONE',  ( 4.275831445896958607E-31, 1.000000000000000000, 1.224646799147353454E-16 ) ) ;
#35 = ORIENTED_EDGE ( 'NONE', *, *, #99, .T. ) ;
#36 = AXIS2_PLACEMENT_3D ( 'NONE', #237, #3, #32 ) ;
#37 = SECURITY_CLASSIFICATION_LEVEL ( 'unclassified' ) ;
#38 = APPROVAL_DATE_TIME ( #132, #274 ) ;
#39 = EDGE_CURVE ( 'NONE', #6, #6, #246, .T. ) ;
#40 = DIRECTION ( 'NONE',  ( -3.491481338843133355E-15, 1.224646799147353207E-16, -1.000000000000000000 ) ) ;
#41 = FACE_BOUND ( 'NONE', #204, .T. ) ;
#42 = ORIENTED_EDGE ( 'NONE', *, *, #134, .F. ) ;
#43 = VERTEX_POINT ( 'NONE', #160 ) ;
#44 = DIRECTION ( 'NONE',  ( -3.491481338843133355E-15, 1.224646799147353207E-16, -1.000000000000000000 ) ) ;
#45 = DIRECTION ( 'NONE',  ( -3.491481338843133355E-15, 1.224646799147353207E-16, -1.000000000000000000 ) ) ;
#46 = PRODUCT_DEFINITION_FORMATION_WITH_SPECIFIED_SOURCE ( 'ANY', '', #155, .NOT_KNOWN. ) ;
#47 = CARTESIAN_POINT ( 'NONE',  ( 6.882408986718216452E-14, -2.414024111267381345E-15, 19.71200278274616835 ) ) ;
#48 =( GEOMETRIC_REPRESENTATION_CONTEXT ( 3 ) GLOBAL_UNCERTAINTY_ASSIGNED_CONTEXT ( ( #215 ) ) GLOBAL_UNIT_ASSIGNED_CONTEXT ( ( #277, #254, #279 ) ) REPRESENTATION_CONTEXT ( 'NONE', 'WORKASPACE' ) );
#49 = DIRECTION ( 'NONE',  ( 3.491481338843133355E-15, -1.224646799147353207E-16, 1.000000000000000000 ) ) ;
#50 = APPROVAL ( #239, 'UNSPECIFIED' ) ;
#51 = PERSON_AND_ORGANIZATION_ROLE ( 'classification_officer' ) ;
#52 = CLOSED_SHELL ( 'NONE', ( #203, #298, #2, #105, #253, #257, #194, #92 ) ) ;
#53 = CALENDAR_DATE ( 2021, 30, 11 ) ;
#54 = FACE_OUTER_BOUND ( 'NONE', #289, .T. ) ;
#55 = ORIENTED_EDGE ( 'NONE', *, *, #20, .F. ) ;
#56 = CALENDAR_DATE ( 2021, 30, 11 ) ;
#57 = CC_DESIGN_DATE_AND_TIME_ASSIGNMENT ( #126, #219, ( #86 ) ) ;
#58 = EDGE_LOOP ( 'NONE', ( #66 ) ) ;
#59 = PLANE ( 'NONE',  #251 ) ;
#60 = CONICAL_SURFACE ( 'NONE', #243, 0.8034999999999989928, 0.5235987755982930425 ) ;
#61 = ORIENTED_EDGE ( 'NONE', *, *, #139, .F. ) ;
#62 = DIRECTION ( 'NONE',  ( 3.491481338843133355E-15, -1.224646799147353207E-16, 1.000000000000000000 ) ) ;
#63 = ADVANCED_FACE ( 'NONE', ( #28, #303 ), #60, .T. ) ;
#64 = DIRECTION ( 'NONE',  ( 0.0000000000000000000, 1.000000000000000000, 0.0000000000000000000 ) ) ;
#65 = EDGE_LOOP ( 'NONE', ( #55 ) ) ;
#66 = ORIENTED_EDGE ( 'NONE', *, *, #134, .T. ) ;
#67 = EDGE_CURVE ( 'NONE', #169, #169, #159, .T. ) ;
#68 = DIRECTION ( 'NONE',  ( 4.793851759520194573E-31, 1.000000000000000000, 1.349349312365284055E-16 ) ) ;
#69 = FACE_OUTER_BOUND ( 'NONE', #163, .T. ) ;
#70 = LOCAL_TIME ( 9, 32, 32.00000000000000000, #223 ) ;
#71 = CARTESIAN_POINT ( 'NONE',  ( 5.237222008264700033E-14, -1.734723475976807094E-15, 15.00000000000000000 ) ) ;
#72 = AXIS2_PLACEMENT_3D ( 'NONE', #281, #275, #278 ) ;
#73 = CARTESIAN_POINT ( 'NONE',  ( 5.237222008264699402E-14, -1.836970198721029589E-15, 14.99999999999999822 ) ) ;
#74 = DIRECTION ( 'NONE',  ( -3.491481338843133355E-15, 1.224646799147353207E-16, -1.000000000000000000 ) ) ;
#75 = PERSON_AND_ORGANIZATION ( #148, #91 ) ;
#76 = CARTESIAN_POINT ( 'NONE',  ( 2.444036937190193349E-14, 0.8034999999999989928, 7.000000000000000000 ) ) ;
#77 = CARTESIAN_POINT ( 'NONE',  ( 2.444036937190193349E-14, -8.572527594031473190E-16, 7.000000000000000000 ) ) ;
#78 = DIRECTION ( 'NONE',  ( 0.0000000000000000000, 0.0000000000000000000, 1.000000000000000000 ) ) ;
#79 = CIRCLE ( 'NONE', #266, 0.7000000000000009548 ) ;
#80 = CARTESIAN_POINT ( 'NONE',  ( 2.444036937190193349E-14, 6.025284926843999583E-33, 7.000000000000000000 ) ) ;
#81 = DIRECTION ( 'NONE',  ( -4.275831445896958607E-31, -1.000000000000000000, -1.224646799147353207E-16 ) ) ;
#82 = PERSON_AND_ORGANIZATION ( #148, #91 ) ;
#83 = APPROVAL_DATE_TIME ( #238, #293 ) ;
#84 = PRODUCT_DEFINITION ( 'UNKNOWN', '', #46, #146 ) ;
#85 = EDGE_LOOP ( 'NONE', ( #158 ) ) ;
#86 = SECURITY_CLASSIFICATION ( '', '', #37 ) ;
#87 = DIRECTION ( 'NONE',  ( -3.491481338843133355E-15, 1.224646799147353207E-16, -1.000000000000000000 ) ) ;
#88 = CIRCLE ( 'NONE', #36, 1.500000000000001554 ) ;
#89 = AXIS2_PLACEMENT_3D ( 'NONE', #116, #74, #210 ) ;
#90 = ORIENTED_EDGE ( 'NONE', *, *, #292, .F. ) ;
#91 = ORGANIZATION ( 'UNSPECIFIED', 'UNSPECIFIED', '' ) ;
#92 = ADVANCED_FACE ( 'NONE', ( #122 ), #5, .F. ) ;
#93 = APPLICATION_CONTEXT ( 'configuration controlled 3d designs of mechanical parts and assemblies' ) ;
#94 = DIRECTION ( 'NONE',  ( 4.275831445896958607E-31, 1.000000000000000000, 1.224646799147353207E-16 ) ) ;
#95 = EDGE_LOOP ( 'NONE', ( #302 ) ) ;
#96 = DIRECTION ( 'NONE',  ( 3.491481338843133355E-15, -1.224646799147353207E-16, 1.000000000000000000 ) ) ;
#97 = AXIS2_PLACEMENT_3D ( 'NONE', #23, #44, #142 ) ;
#98 = PLANE ( 'NONE',  #22 ) ;
#99 = EDGE_CURVE ( 'NONE', #29, #29, #197, .T. ) ;
#100 = CARTESIAN_POINT ( 'NONE',  ( 1.745740669421566678E-13, -6.123233995736766085E-15, 50.00000000000000000 ) ) ;
#101 = AXIS2_PLACEMENT_3D ( 'NONE', #73, #45, #234 ) ;
#102 = CIRCLE ( 'NONE', #101, 0.7000000000000001776 ) ;
#103 = PERSON_AND_ORGANIZATION ( #148, #91 ) ;
#104 = EDGE_LOOP ( 'NONE', ( #140 ) ) ;
#105 = ADVANCED_FACE ( 'NONE', ( #69, #164 ), #109, .F. ) ;
#106 = CIRCLE ( 'NONE', #202, 0.8034999999999998810 ) ;
#107 = CARTESIAN_POINT ( 'NONE',  ( 0.0000000000000000000, 0.0000000000000000000, 0.0000000000000000000 ) ) ;
#108 = DIRECTION ( 'NONE',  ( -4.275831445896958607E-31, -1.000000000000000000, -1.224646799147353207E-16 ) ) ;
#109 = TOROIDAL_SURFACE ( 'NONE', #280, 2.700000000000000178, 2.000000000000000888 ) ;
#110 = AXIS2_PLACEMENT_3D ( 'NONE', #100, #295, #196 ) ;
#111 = MANIFOLD_SOLID_BREP ( 'Corps-Déplacer/Copier1[1]', #52 ) ;
#112 = VERTEX_POINT ( 'NONE', #294 ) ;
#113 = FACE_OUTER_BOUND ( 'NONE', #15, .T. ) ;
#114 = CC_DESIGN_PERSON_AND_ORGANIZATION_ASSIGNMENT ( #288, #51, ( #86 ) ) ;
#115 = AXIS2_PLACEMENT_3D ( 'NONE', #25, #235, #94 ) ;
#116 = CARTESIAN_POINT ( 'NONE',  ( 5.358479882634335789E-14, -1.879501735712543302E-15, 15.34729635533384595 ) ) ;
#117 = ADVANCED_FACE ( 'NONE', ( #252 ), #98, .T. ) ;
#118 = DIRECTION ( 'NONE',  ( 0.0000000000000000000, 1.000000000000000000, 0.0000000000000000000 ) ) ;
#119 = DIRECTION ( 'NONE',  ( 0.0000000000000000000, 1.000000000000000000, 0.0000000000000000000 ) ) ;
#120 = AXIS2_PLACEMENT_3D ( 'NONE', #107, #283, #34 ) ;
#121 = CARTESIAN_POINT ( 'NONE',  ( 1.745740669421566678E-13, 1.199999999999995515, 50.00000000000000000 ) ) ;
#122 = FACE_OUTER_BOUND ( 'NONE', #209, .T. ) ;
#123 = DIRECTION ( 'NONE',  ( 1.000000000000000000, 0.0000000000000000000, 0.0000000000000000000 ) ) ;
#124 = EDGE_CURVE ( 'NONE', #256, #256, #102, .T. ) ;
#125 = DIRECTION ( 'NONE',  ( 4.275831445896957731E-31, 1.000000000000000000, 1.224646799147353207E-16 ) ) ;
#126 = DATE_AND_TIME ( #17, #128 ) ;
#127 = CARTESIAN_POINT ( 'NONE',  ( 5.237222008264699402E-14, 0.6999999999999984013, 14.99999999999999822 ) ) ;
#128 = LOCAL_TIME ( 9, 32, 32.00000000000000000, #222 ) ;
#129 = DIRECTION ( 'NONE',  ( -3.491481338843133355E-15, 1.224646799147353207E-16, -1.000000000000000000 ) ) ;
#130 = CIRCLE ( 'NONE', #299, 0.8034999999999989928 ) ;
#131 = ORIENTED_EDGE ( 'NONE', *, *, #67, .F. ) ;
#132 = DATE_AND_TIME ( #56, #250 ) ;
#133 = EDGE_LOOP ( 'NONE', ( #90 ) ) ;
#134 = EDGE_CURVE ( 'NONE', #11, #11, #4, .T. ) ;
#135 = PERSON_AND_ORGANIZATION_ROLE ( 'creator' ) ;
#136 = CC_DESIGN_APPROVAL ( #274, ( #46 ) ) ;
#137 = DIRECTION ( 'NONE',  ( 3.491481338843133355E-15, -1.224646799147353207E-16, 1.000000000000000000 ) ) ;
#138 = ORIENTED_EDGE ( 'NONE', *, *, #16, .T. ) ;
#139 = EDGE_CURVE ( 'NONE', #112, #112, #268, .T. ) ;
#140 = ORIENTED_EDGE ( 'NONE', *, *, #31, .F. ) ;
#141 = EDGE_LOOP ( 'NONE', ( #264 ) ) ;
#142 = DIRECTION ( 'NONE',  ( 4.275831445896958607E-31, 1.000000000000000000, 1.224646799147353207E-16 ) ) ;
#143 = CARTESIAN_POINT ( 'NONE',  ( 8.728703347107829444E-16, -3.061616997868381785E-17, 0.2499999999999998890 ) ) ;
#144 = DIRECTION ( 'NONE',  ( -3.491481338843133355E-15, 1.224646799147353207E-16, -1.000000000000000000 ) ) ;
#145 = ADVANCED_FACE ( 'NONE', ( #170, #241 ), #290, .T. ) ;
#146 = DESIGN_CONTEXT ( 'detailed design', #93, 'design' ) ;
#147 = APPROVAL_PERSON_ORGANIZATION ( #173, #274, #178 ) ;
#148 = PERSON ( 'UNSPECIFIED', 'UNSPECIFIED', 'UNSPECIFIED', ('UNSPECIFIED'), ('UNSPECIFIED'), ('UNSPECIFIED') ) ;
#149 = CC_DESIGN_SECURITY_CLASSIFICATION ( #86, ( #46 ) ) ;
#150 = APPROVAL_STATUS ( 'not_yet_approved' ) ;
#151 = FACE_OUTER_BOUND ( 'NONE', #141, .T. ) ;
#152 = PERSON_AND_ORGANIZATION ( #148, #91 ) ;
#153 = ORIENTED_EDGE ( 'NONE', *, *, #67, .T. ) ;
#154 = DATE_AND_TIME ( #33, #272 ) ;
#155 = PRODUCT ( '200111', '200111', '', ( #171 ) ) ;
#156 = ADVANCED_FACE ( 'NONE', ( #151 ), #13, .F. ) ;
#157 = VERTEX_POINT ( 'NONE', #181 ) ;
#158 = ORIENTED_EDGE ( 'NONE', *, *, #39, .F. ) ;
#159 = CIRCLE ( 'NONE', #231, 0.8034999999999998810 ) ;
#160 = CARTESIAN_POINT ( 'NONE',  ( 1.735266225405037467E-13, 1.499999999999995559, 49.70000000000000284 ) ) ;
#161 = FACE_OUTER_BOUND ( 'NONE', #232, .T. ) ;
#162 = FACE_OUTER_BOUND ( 'NONE', #248, .T. ) ;
#163 = EDGE_LOOP ( 'NONE', ( #207 ) ) ;
#164 = FACE_OUTER_BOUND ( 'NONE', #58, .T. ) ;
#165 = CARTESIAN_POINT ( 'NONE',  ( 2.444036937190193349E-14, 6.025284926843999583E-33, 7.000000000000000000 ) ) ;
#166 = APPROVAL_PERSON_ORGANIZATION ( #82, #50, #193 ) ;
#167 = DIRECTION ( 'NONE',  ( 4.275831445896958607E-31, 1.000000000000000000, 1.224646799147353207E-16 ) ) ;
#168 = DIRECTION ( 'NONE',  ( 0.0000000000000000000, 1.000000000000000000, 0.0000000000000000000 ) ) ;
#169 = VERTEX_POINT ( 'NONE', #76 ) ;
#170 = FACE_OUTER_BOUND ( 'NONE', #104, .T. ) ;
#171 = MECHANICAL_CONTEXT ( 'NONE', #186, 'mechanical' ) ;
#172 = CC_DESIGN_PERSON_AND_ORGANIZATION_ASSIGNMENT ( #103, #199, ( #46 ) ) ;
#173 = PERSON_AND_ORGANIZATION ( #148, #91 ) ;
#174 = AXIS2_PLACEMENT_3D ( 'NONE', #216, #87, #198 ) ;
#175 = DIRECTION ( 'NONE',  ( 3.491481338843133355E-15, -1.224646799147353207E-16, 1.000000000000000000 ) ) ;
#176 = EDGE_LOOP ( 'NONE', ( #228 ) ) ;
#177 = VERTEX_POINT ( 'NONE', #267 ) ;
#178 = APPROVAL_ROLE ( '' ) ;
#179 = COORDINATED_UNIVERSAL_TIME_OFFSET ( 1, 0, .AHEAD. ) ;
#180 = CONICAL_SURFACE ( 'NONE', #30, 1.499999999999996447, 0.1745329251994262865 ) ;
#181 = CARTESIAN_POINT ( 'NONE',  ( 2.444036937190193349E-14, 0.8034999999999989928, 7.000000000000000000 ) ) ;
#182 = AXIS2_PLACEMENT_3D ( 'NONE', #218, #40, #125 ) ;
#183 = VERTEX_POINT ( 'NONE', #261 ) ;
#184 = CARTESIAN_POINT ( 'NONE',  ( 2.506627765991135921E-14, -8.792066668447524607E-16, 7.179267258583376332 ) ) ;
#185 = EDGE_LOOP ( 'NONE', ( #131 ) ) ;
#186 = APPLICATION_CONTEXT ( 'configuration controlled 3d designs of mechanical parts and assemblies' ) ;
#187 = DIRECTION ( 'NONE',  ( -3.491481338843133355E-15, 1.224646799147353207E-16, -1.000000000000000000 ) ) ;
#188 = DIRECTION ( 'NONE',  ( -3.491481338843133355E-15, 1.224646799147353207E-16, -1.000000000000000000 ) ) ;
#189 = CARTESIAN_POINT ( 'NONE',  ( 2.444036937190193349E-14, -8.572527594031473190E-16, 7.000000000000000000 ) ) ;
#190 = AXIS2_PLACEMENT_3D ( 'NONE', #47, #144, #168 ) ;
#191 = CARTESIAN_POINT ( 'NONE',  ( -1.892735826383161794E-31, 0.6591624327025944474, -5.421010862427522170E-17 ) ) ;
#192 = DIRECTION ( 'NONE',  ( -3.491481338843133355E-15, 1.224646799147353207E-16, -1.000000000000000000 ) ) ;
#193 = APPROVAL_ROLE ( '' ) ;
#194 = ADVANCED_FACE ( 'NONE', ( #206, #41 ), #208, .T. ) ;
#195 = PRODUCT_RELATED_PRODUCT_CATEGORY ( 'detail', '', ( #155 ) ) ;
#196 = DIRECTION ( 'NONE',  ( 0.0000000000000000000, 1.000000000000000000, 0.0000000000000000000 ) ) ;
#197 = CIRCLE ( 'NONE', #24, 1.200000000000001732 ) ;
#198 = DIRECTION ( 'NONE',  ( 0.0000000000000000000, 1.000000000000000000, 0.0000000000000000000 ) ) ;
#199 = PERSON_AND_ORGANIZATION_ROLE ( 'design_supplier' ) ;
#200 = EDGE_LOOP ( 'NONE', ( #153 ) ) ;
#201 = PERSON_AND_ORGANIZATION_ROLE ( 'design_owner' ) ;
#202 = AXIS2_PLACEMENT_3D ( 'NONE', #77, #129, #220 ) ;
#203 = ADVANCED_FACE ( 'NONE', ( #287 ), #59, .F. ) ;
#204 = EDGE_LOOP ( 'NONE', ( #35 ) ) ;
#205 = FACE_OUTER_BOUND ( 'NONE', #133, .T. ) ;
#206 = FACE_OUTER_BOUND ( 'NONE', #65, .T. ) ;
#207 = ORIENTED_EDGE ( 'NONE', *, *, #124, .F. ) ;
#208 = CONICAL_SURFACE ( 'NONE', #110, 1.200000000000001732, 0.7853981633974453924 ) ;
#209 = EDGE_LOOP ( 'NONE', ( #271 ) ) ;
#210 = DIRECTION ( 'NONE',  ( 0.0000000000000000000, 1.000000000000000000, 0.0000000000000000000 ) ) ;
#211 = APPLICATION_PROTOCOL_DEFINITION ( 'international standard', 'config_control_design', 1994, #186 ) ;
#212 = MANIFOLD_SOLID_BREP ( 'Corps-Déplacer/Copier1[2]', #273 ) ;
#213 = DIRECTION ( 'NONE',  ( -3.491481338843133355E-15, 1.224646799147353207E-16, -1.000000000000000000 ) ) ;
#214 = CC_DESIGN_PERSON_AND_ORGANIZATION_ASSIGNMENT ( #242, #201, ( #155 ) ) ;
#215 = UNCERTAINTY_MEASURE_WITH_UNIT (LENGTH_MEASURE( 1.000000000000000082E-05 ), #277, 'distance_accuracy_value', 'NONE');
#216 = CARTESIAN_POINT ( 'NONE',  ( 2.444036937190193349E-14, -8.572527594031473190E-16, 7.000000000000000000 ) ) ;
#217 = APPLICATION_PROTOCOL_DEFINITION ( 'international standard', 'config_control_design', 1994, #93 ) ;
#218 = CARTESIAN_POINT ( 'NONE',  ( 0.0000000000000000000, 0.0000000000000000000, 0.0000000000000000000 ) ) ;
#219 = DATE_TIME_ROLE ( 'classification_date' ) ;
#220 = DIRECTION ( 'NONE',  ( 0.0000000000000000000, 1.000000000000000000, 0.0000000000000000000 ) ) ;
#221 = CALENDAR_DATE ( 2021, 30, 11 ) ;
#222 = COORDINATED_UNIVERSAL_TIME_OFFSET ( 1, 0, .AHEAD. ) ;
#223 = COORDINATED_UNIVERSAL_TIME_OFFSET ( 1, 0, .AHEAD. ) ;
#224 = CC_DESIGN_PERSON_AND_ORGANIZATION_ASSIGNMENT ( #255, #135, ( #46 ) ) ;
#225 = EDGE_LOOP ( 'NONE', ( #260 ) ) ;
#226 = CONICAL_SURFACE ( 'NONE', #174, 0.8034999999999998810, 0.5235987755983000369 ) ;
#227 = CARTESIAN_POINT ( 'NONE',  ( 6.882408986718216452E-14, -2.414024111267381345E-15, 19.71200278274616835 ) ) ;
#228 = ORIENTED_EDGE ( 'NONE', *, *, #292, .T. ) ;
#229 = ORIENTED_EDGE ( 'NONE', *, *, #139, .T. ) ;
#230 = ORIENTED_EDGE ( 'NONE', *, *, #16, .F. ) ;
#231 = AXIS2_PLACEMENT_3D ( 'NONE', #189, #187, #119 ) ;
#232 = EDGE_LOOP ( 'NONE', ( #61 ) ) ;
#233 = LOCAL_TIME ( 9, 32, 32.00000000000000000, #18 ) ;
#234 = DIRECTION ( 'NONE',  ( 0.0000000000000000000, 1.000000000000000000, 0.0000000000000000000 ) ) ;
#235 = DIRECTION ( 'NONE',  ( -3.491481338843133355E-15, 1.224646799147353207E-16, -1.000000000000000000 ) ) ;
#236 = CARTESIAN_POINT ( 'NONE',  ( 5.358479882634335789E-14, 0.7303844939755786969, 15.34729635533384595 ) ) ;
#237 = CARTESIAN_POINT ( 'NONE',  ( 1.735266225405037467E-13, -6.086494591762345225E-15, 49.70000000000000284 ) ) ;
#238 = DATE_AND_TIME ( #221, #70 ) ;
#239 = APPROVAL_STATUS ( 'not_yet_approved' ) ;
#240 = DIRECTION ( 'NONE',  ( 0.0000000000000000000, -1.000000000000000000, 0.0000000000000000000 ) ) ;
#241 = FACE_OUTER_BOUND ( 'NONE', #200, .T. ) ;
#242 = PERSON_AND_ORGANIZATION ( #148, #91 ) ;
#243 = AXIS2_PLACEMENT_3D ( 'NONE', #249, #96, #1 ) ;
#244 = DATE_AND_TIME ( #53, #233 ) ;
#245 = CC_DESIGN_DATE_AND_TIME_ASSIGNMENT ( #154, #284, ( #84 ) ) ;
#246 = CIRCLE ( 'NONE', #115, 0.6591624327025944474 ) ;
#247 = FACE_BOUND ( 'NONE', #10, .T. ) ;
#248 = EDGE_LOOP ( 'NONE', ( #19 ) ) ;
#249 = CARTESIAN_POINT ( 'NONE',  ( 8.728703347107829444E-16, -3.061616997868381785E-17, 0.2499999999999998890 ) ) ;
#250 = LOCAL_TIME ( 9, 32, 32.00000000000000000, #262 ) ;
#251 = AXIS2_PLACEMENT_3D ( 'NONE', #80, #137, #81 ) ;
#252 = FACE_OUTER_BOUND ( 'NONE', #185, .T. ) ;
#253 = ADVANCED_FACE ( 'NONE', ( #297, #54 ), #180, .T. ) ;
#254 =( NAMED_UNIT ( * ) PLANE_ANGLE_UNIT ( ) SI_UNIT ( $, .RADIAN. ) );
#255 = PERSON_AND_ORGANIZATION ( #148, #91 ) ;
#256 = VERTEX_POINT ( 'NONE', #127 ) ;
#257 = ADVANCED_FACE ( 'NONE', ( #161, #21 ), #258, .T. ) ;
#258 = CYLINDRICAL_SURFACE ( 'NONE', #120, 1.499999999999998890 ) ;
#259 = APPROVAL_DATE_TIME ( #244, #50 ) ;
#260 = ORIENTED_EDGE ( 'NONE', *, *, #20, .T. ) ;
#261 = CARTESIAN_POINT ( 'NONE',  ( 8.728703347107833388E-16, 0.8034999999999989928, 0.2500000000000000000 ) ) ;
#262 = COORDINATED_UNIVERSAL_TIME_OFFSET ( 1, 0, .AHEAD. ) ;
#263 = CC_DESIGN_APPROVAL ( #293, ( #86 ) ) ;
#264 = ORIENTED_EDGE ( 'NONE', *, *, #39, .T. ) ;
#265 = SHAPE_DEFINITION_REPRESENTATION ( #26, #285 ) ;
#266 = AXIS2_PLACEMENT_3D ( 'NONE', #184, #270, #64 ) ;
#267 = CARTESIAN_POINT ( 'NONE',  ( 2.506627765991135921E-14, 0.7000000000000000666, 7.179267258583376332 ) ) ;
#268 = CIRCLE ( 'NONE', #190, 1.499999999999996447 ) ;
#269 = CARTESIAN_POINT ( 'NONE',  ( -2.355601642043426314E-31, 8.262338334451971698E-33, -6.746711247850835193E-17 ) ) ;
#270 = DIRECTION ( 'NONE',  ( -3.491481338843133355E-15, 1.224646799147353207E-16, -1.000000000000000000 ) ) ;
#271 = ORIENTED_EDGE ( 'NONE', *, *, #99, .F. ) ;
#272 = LOCAL_TIME ( 9, 32, 32.00000000000000000, #179 ) ;
#273 = CLOSED_SHELL ( 'NONE', ( #156, #63, #145, #117 ) ) ;
#274 = APPROVAL ( #291, 'UNSPECIFIED' ) ;
#275 = DIRECTION ( 'NONE',  ( -3.491481338843133355E-15, 1.224646799147353207E-16, -1.000000000000000000 ) ) ;
#276 = CYLINDRICAL_SURFACE ( 'NONE', #97, 0.7000000000000005107 ) ;
#277 =( LENGTH_UNIT ( ) NAMED_UNIT ( * ) SI_UNIT ( .MILLI., .METRE. ) );
#278 = DIRECTION ( 'NONE',  ( 4.275831445896958607E-31, 1.000000000000000000, 1.224646799147353207E-16 ) ) ;
#279 =( NAMED_UNIT ( * ) SI_UNIT ( $, .STERADIAN. ) SOLID_ANGLE_UNIT ( ) );
#280 = AXIS2_PLACEMENT_3D ( 'NONE', #71, #188, #167 ) ;
#281 = CARTESIAN_POINT ( 'NONE',  ( 1.745740669421566678E-13, 8.998558695971067645E-33, 50.00000000000000000 ) ) ;
#282 = DIRECTION ( 'NONE',  ( -4.275831445896958607E-31, -1.000000000000000000, -1.224646799147353207E-16 ) ) ;
#283 = DIRECTION ( 'NONE',  ( -3.491481338843133355E-15, 1.224646799147353207E-16, -1.000000000000000000 ) ) ;
#284 = DATE_TIME_ROLE ( 'creation_date' ) ;
#285 = ADVANCED_BREP_SHAPE_REPRESENTATION ( '200111', ( #111, #212, #286 ), #48 ) ;
#286 = AXIS2_PLACEMENT_3D ( 'NONE', #7, #78, #123 ) ;
#287 = FACE_OUTER_BOUND ( 'NONE', #176, .T. ) ;
#288 = PERSON_AND_ORGANIZATION ( #148, #91 ) ;
#289 = EDGE_LOOP ( 'NONE', ( #229 ) ) ;
#290 = CYLINDRICAL_SURFACE ( 'NONE', #182, 0.8034999999999994369 ) ;
#291 = APPROVAL_STATUS ( 'not_yet_approved' ) ;
#292 = EDGE_CURVE ( 'NONE', #157, #157, #106, .T. ) ;
#293 = APPROVAL ( #150, 'UNSPECIFIED' ) ;
#294 = CARTESIAN_POINT ( 'NONE',  ( 6.882408986718216452E-14, 1.499999999999994005, 19.71200278274616835 ) ) ;
#295 = DIRECTION ( 'NONE',  ( -3.491481338843133355E-15, 1.224646799147353207E-16, -1.000000000000000000 ) ) ;
#296 = APPROVAL_PERSON_ORGANIZATION ( #152, #293, #9 ) ;
#297 = FACE_BOUND ( 'NONE', #300, .T. ) ;
#298 = ADVANCED_FACE ( 'NONE', ( #247, #205 ), #226, .T. ) ;
#299 = AXIS2_PLACEMENT_3D ( 'NONE', #143, #213, #68 ) ;
#300 = EDGE_LOOP ( 'NONE', ( #42 ) ) ;
#301 = CC_DESIGN_PERSON_AND_ORGANIZATION_ASSIGNMENT ( #75, #14, ( #84 ) ) ;
#302 = ORIENTED_EDGE ( 'NONE', *, *, #31, .T. ) ;
#303 = FACE_OUTER_BOUND ( 'NONE', #95, .T. ) ;
ENDSEC;
END-ISO-10303-21;
