ISO-10303-21;
HEADER;
FILE_DESCRIPTION (( 'STEP AP203' ),
    '1' );
FILE_NAME ('200110.step',
    '2021-11-30T06:44:51',
    ( '' ),
    ( '' ),
    'SwSTEP 2.0',
    'SolidWorks 2019',
    '' );
FILE_SCHEMA (( 'CONFIG_CONTROL_DESIGN' ));
ENDSEC;

DATA;
#1 = AXIS2_PLACEMENT_3D ( 'NONE', #127, #183, #147 ) ;
#2 = VERTEX_POINT ( 'NONE', #86 ) ;
#3 = CC_DESIGN_APPROVAL ( #303, ( #22 ) ) ;
#4 = CARTESIAN_POINT ( 'NONE',  ( 1.735266225405037467E-13, -6.086494591762345225E-15, 49.70000000000000284 ) ) ;
#5 = COORDINATED_UNIVERSAL_TIME_OFFSET ( 1, 0, .AHEAD. ) ;
#6 = FACE_OUTER_BOUND ( 'NONE', #174, .T. ) ;
#7 = EDGE_LOOP ( 'NONE', ( #165 ) ) ;
#8 = CYLINDRICAL_SURFACE ( 'NONE', #97, 0.8599999999999994316 ) ;
#9 = DIRECTION ( 'NONE',  ( -3.491481338843133355E-15, 1.224646799147353207E-16, -1.000000000000000000 ) ) ;
#10 = PERSON_AND_ORGANIZATION ( #215, #160 ) ;
#11 = CC_DESIGN_PERSON_AND_ORGANIZATION_ASSIGNMENT ( #75, #94, ( #190 ) ) ;
#12 = SECURITY_CLASSIFICATION_LEVEL ( 'unclassified' ) ;
#13 = DATE_AND_TIME ( #290, #162 ) ;
#14 = APPLICATION_CONTEXT ( 'configuration controlled 3d designs of mechanical parts and assemblies' ) ;
#15 = AXIS2_PLACEMENT_3D ( 'NONE', #258, #257, #236 ) ;
#16 = EDGE_CURVE ( 'NONE', #2, #2, #81, .T. ) ;
#17 = FACE_OUTER_BOUND ( 'NONE', #186, .T. ) ;
#18 = LOCAL_TIME ( 7, 44, 51.00000000000000000, #5 ) ;
#19 = CARTESIAN_POINT ( 'NONE',  ( 7.613034594122895434E-14, -2.670293076972264762E-15, 21.80459769160730232 ) ) ;
#20 = CARTESIAN_POINT ( 'NONE',  ( 7.613034594122895434E-14, -2.670293076972264762E-15, 21.80459769160730232 ) ) ;
#21 = PERSON_AND_ORGANIZATION ( #215, #160 ) ;
#22 = PRODUCT_DEFINITION_FORMATION_WITH_SPECIFIED_SOURCE ( 'ANY', '', #230, .NOT_KNOWN. ) ;
#23 = DIRECTION ( 'NONE',  ( 0.0000000000000000000, 1.000000000000000000, 0.0000000000000000000 ) ) ;
#24 = ADVANCED_FACE ( 'NONE', ( #235 ), #189, .F. ) ;
#25 =( LENGTH_UNIT ( ) NAMED_UNIT ( * ) SI_UNIT ( .MILLI., .METRE. ) );
#26 = CARTESIAN_POINT ( 'NONE',  ( 2.793185071074506684E-14, -9.797174393178825657E-16, 8.000000000000000000 ) ) ;
#27 = CIRCLE ( 'NONE', #191, 0.8691624327025947450 ) ;
#28 = DESIGN_CONTEXT ( 'detailed design', #34, 'design' ) ;
#29 = FACE_OUTER_BOUND ( 'NONE', #264, .T. ) ;
#30 = ORIENTED_EDGE ( 'NONE', *, *, #68, .T. ) ;
#31 = CARTESIAN_POINT ( 'NONE',  ( 2.793185071074506684E-14, 7.600032698638947198E-33, 8.000000000000000000 ) ) ;
#32 = AXIS2_PLACEMENT_3D ( 'NONE', #285, #208, #283 ) ;
#33 = ADVANCED_BREP_SHAPE_REPRESENTATION ( '200110', ( #168, #166, #38 ), #87 ) ;
#34 = APPLICATION_CONTEXT ( 'configuration controlled 3d designs of mechanical parts and assemblies' ) ;
#35 = DATE_AND_TIME ( #36, #120 ) ;
#36 = CALENDAR_DATE ( 2021, 30, 11 ) ;
#37 = ADVANCED_FACE ( 'NONE', ( #71, #52 ), #134, .T. ) ;
#38 = AXIS2_PLACEMENT_3D ( 'NONE', #48, #248, #176 ) ;
#39 = EDGE_LOOP ( 'NONE', ( #99 ) ) ;
#40 = DIRECTION ( 'NONE',  ( 0.0000000000000000000, 1.000000000000000000, 0.0000000000000000000 ) ) ;
#41 = CARTESIAN_POINT ( 'NONE',  ( 6.405924284287273902E-14, -2.246895775456748746E-15, 18.34729635533384240 ) ) ;
#42 = LOCAL_TIME ( 7, 44, 51.00000000000000000, #224 ) ;
#43 = PERSON_AND_ORGANIZATION_ROLE ( 'creator' ) ;
#44 = DIRECTION ( 'NONE',  ( -3.491481338843133355E-15, 1.224646799147353207E-16, -1.000000000000000000 ) ) ;
#45 = DATE_AND_TIME ( #104, #42 ) ;
#46 = EDGE_CURVE ( 'NONE', #47, #47, #27, .T. ) ;
#47 = VERTEX_POINT ( 'NONE', #275 ) ;
#48 = CARTESIAN_POINT ( 'NONE',  ( 0.0000000000000000000, 0.0000000000000000000, 0.0000000000000000000 ) ) ;
#49 = DIRECTION ( 'NONE',  ( 0.0000000000000000000, 1.000000000000000000, 0.0000000000000000000 ) ) ;
#50 = ORIENTED_EDGE ( 'NONE', *, *, #265, .T. ) ;
#51 = FACE_OUTER_BOUND ( 'NONE', #220, .T. ) ;
#52 = FACE_OUTER_BOUND ( 'NONE', #39, .T. ) ;
#53 = AXIS2_PLACEMENT_3D ( 'NONE', #145, #143, #40 ) ;
#54 = CIRCLE ( 'NONE', #85, 1.200000000000001732 ) ;
#55 = COORDINATED_UNIVERSAL_TIME_OFFSET ( 1, 0, .AHEAD. ) ;
#56 = APPROVAL_DATE_TIME ( #262, #117 ) ;
#57 = PRODUCT_RELATED_PRODUCT_CATEGORY ( 'detail', '', ( #230 ) ) ;
#58 = ORIENTED_EDGE ( 'NONE', *, *, #16, .F. ) ;
#59 = EDGE_LOOP ( 'NONE', ( #50 ) ) ;
#60 = FACE_OUTER_BOUND ( 'NONE', #144, .T. ) ;
#61 = CALENDAR_DATE ( 2021, 30, 11 ) ;
#62 = CIRCLE ( 'NONE', #277, 1.013500000000000068 ) ;
#63 = DIRECTION ( 'NONE',  ( 0.0000000000000000000, 1.000000000000000000, 0.0000000000000000000 ) ) ;
#64 = CIRCLE ( 'NONE', #242, 1.500000000000001554 ) ;
#65 = FACE_OUTER_BOUND ( 'NONE', #149, .T. ) ;
#66 = VERTEX_POINT ( 'NONE', #270 ) ;
#67 = DIRECTION ( 'NONE',  ( -3.800552430956561994E-31, -1.000000000000000000, -1.069760406991125333E-16 ) ) ;
#68 = EDGE_CURVE ( 'NONE', #229, #229, #192, .T. ) ;
#69 = VERTEX_POINT ( 'NONE', #198 ) ;
#70 = DIRECTION ( 'NONE',  ( -4.275831445896958607E-31, -1.000000000000000000, -1.224646799147353207E-16 ) ) ;
#71 = FACE_OUTER_BOUND ( 'NONE', #243, .T. ) ;
#72 = AXIS2_PLACEMENT_3D ( 'NONE', #132, #297, #23 ) ;
#73 = ADVANCED_FACE ( 'NONE', ( #101, #267 ), #163, .T. ) ;
#74 = SHAPE_DEFINITION_REPRESENTATION ( #180, #33 ) ;
#75 = PERSON_AND_ORGANIZATION ( #215, #160 ) ;
#76 = LOCAL_TIME ( 7, 44, 51.00000000000000000, #214 ) ;
#77 = AXIS2_PLACEMENT_3D ( 'NONE', #19, #255, #63 ) ;
#78 = APPROVAL_ROLE ( '' ) ;
#79 = ORIENTED_EDGE ( 'NONE', *, *, #294, .F. ) ;
#80 = PLANE ( 'NONE',  #249 ) ;
#81 = CIRCLE ( 'NONE', #292, 0.8600000000000000977 ) ;
#82 = PERSON_AND_ORGANIZATION ( #215, #160 ) ;
#83 = DIRECTION ( 'NONE',  ( -3.491481338843133355E-15, 1.224646799147353207E-16, -1.000000000000000000 ) ) ;
#84 = EDGE_LOOP ( 'NONE', ( #30 ) ) ;
#85 = AXIS2_PLACEMENT_3D ( 'NONE', #205, #44, #130 ) ;
#86 = CARTESIAN_POINT ( 'NONE',  ( 6.284666409917640040E-14, 0.8599999999999978773, 18.00000000000000000 ) ) ;
#87 =( GEOMETRIC_REPRESENTATION_CONTEXT ( 3 ) GLOBAL_UNCERTAINTY_ASSIGNED_CONTEXT ( ( #171 ) ) GLOBAL_UNIT_ASSIGNED_CONTEXT ( ( #25, #298, #88 ) ) REPRESENTATION_CONTEXT ( 'NONE', 'WORKASPACE' ) );
#88 =( NAMED_UNIT ( * ) SI_UNIT ( $, .STERADIAN. ) SOLID_ANGLE_UNIT ( ) );
#89 = PLANE ( 'NONE',  #1 ) ;
#90 = APPROVAL_DATE_TIME ( #151, #128 ) ;
#91 = DIRECTION ( 'NONE',  ( 0.0000000000000000000, 1.000000000000000000, 0.0000000000000000000 ) ) ;
#92 = CC_DESIGN_SECURITY_CLASSIFICATION ( #190, ( #22 ) ) ;
#93 = EDGE_LOOP ( 'NONE', ( #124 ) ) ;
#94 = PERSON_AND_ORGANIZATION_ROLE ( 'classification_officer' ) ;
#95 = ADVANCED_FACE ( 'NONE', ( #17 ), #102, .F. ) ;
#96 = CALENDAR_DATE ( 2021, 30, 11 ) ;
#97 = AXIS2_PLACEMENT_3D ( 'NONE', #188, #300, #175 ) ;
#98 = CIRCLE ( 'NONE', #209, 0.8903844939755807264 ) ;
#99 = ORIENTED_EDGE ( 'NONE', *, *, #193, .T. ) ;
#100 = EDGE_CURVE ( 'NONE', #181, #181, #187, .T. ) ;
#101 = FACE_OUTER_BOUND ( 'NONE', #199, .T. ) ;
#102 = PLANE ( 'NONE',  #32 ) ;
#103 = DIRECTION ( 'NONE',  ( -3.491481338843133355E-15, 1.224646799147353207E-16, -1.000000000000000000 ) ) ;
#104 = CALENDAR_DATE ( 2021, 30, 11 ) ;
#105 = ORIENTED_EDGE ( 'NONE', *, *, #265, .F. ) ;
#106 = DIRECTION ( 'NONE',  ( -3.491481338843133355E-15, 1.224646799147353207E-16, -1.000000000000000000 ) ) ;
#107 = VERTEX_POINT ( 'NONE', #129 ) ;
#108 = CC_DESIGN_PERSON_AND_ORGANIZATION_ASSIGNMENT ( #10, #212, ( #22 ) ) ;
#109 = CIRCLE ( 'NONE', #135, 1.013500000000000068 ) ;
#110 = FACE_BOUND ( 'NONE', #295, .T. ) ;
#111 = CARTESIAN_POINT ( 'NONE',  ( -1.858196030671026714E-31, 6.517674305839475808E-33, -5.322084955741797058E-17 ) ) ;
#112 = DIRECTION ( 'NONE',  ( 4.275831445896958607E-31, 1.000000000000000000, 1.224646799147353454E-16 ) ) ;
#113 = APPROVAL_PERSON_ORGANIZATION ( #288, #303, #118 ) ;
#114 = DIRECTION ( 'NONE',  ( -3.491481338843133355E-15, 1.224646799147353207E-16, -1.000000000000000000 ) ) ;
#115 = ADVANCED_FACE ( 'NONE', ( #51, #29 ), #8, .T. ) ;
#116 = APPROVAL_DATE_TIME ( #35, #303 ) ;
#117 = APPROVAL ( #238, 'UNSPECIFIED' ) ;
#118 = APPROVAL_ROLE ( '' ) ;
#119 = AXIS2_PLACEMENT_3D ( 'NONE', #20, #247, #150 ) ;
#120 = LOCAL_TIME ( 7, 44, 51.00000000000000000, #263 ) ;
#121 = ADVANCED_FACE ( 'NONE', ( #274, #228 ), #246, .T. ) ;
#122 = DIRECTION ( 'NONE',  ( -3.491481338843133355E-15, 1.224646799147353207E-16, -1.000000000000000000 ) ) ;
#123 = VERTEX_POINT ( 'NONE', #256 ) ;
#124 = ORIENTED_EDGE ( 'NONE', *, *, #226, .T. ) ;
#125 = DIRECTION ( 'NONE',  ( -3.491481338843133355E-15, 1.224646799147353207E-16, -1.000000000000000000 ) ) ;
#126 = VERTEX_POINT ( 'NONE', #281 ) ;
#127 = CARTESIAN_POINT ( 'NONE',  ( 2.793185071074506684E-14, 7.600032698638947198E-33, 8.000000000000000000 ) ) ;
#128 = APPROVAL ( #301, 'UNSPECIFIED' ) ;
#129 = CARTESIAN_POINT ( 'NONE',  ( 2.793185071074506684E-14, 1.013499999999998957, 8.000000000000000000 ) ) ;
#130 = DIRECTION ( 'NONE',  ( 0.0000000000000000000, 1.000000000000000000, 0.0000000000000000000 ) ) ;
#131 = PERSON_AND_ORGANIZATION_ROLE ( 'design_owner' ) ;
#132 = CARTESIAN_POINT ( 'NONE',  ( 1.745740669421566678E-13, -6.123233995736766085E-15, 50.00000000000000000 ) ) ;
#133 = ORIENTED_EDGE ( 'NONE', *, *, #46, .T. ) ;
#134 = CYLINDRICAL_SURFACE ( 'NONE', #153, 1.499999999999999112 ) ;
#135 = AXIS2_PLACEMENT_3D ( 'NONE', #252, #106, #91 ) ;
#136 = AXIS2_PLACEMENT_3D ( 'NONE', #185, #83, #273 ) ;
#137 = CC_DESIGN_PERSON_AND_ORGANIZATION_ASSIGNMENT ( #240, #239, ( #22 ) ) ;
#138 = PERSON_AND_ORGANIZATION ( #215, #160 ) ;
#139 = DATE_TIME_ROLE ( 'classification_date' ) ;
#140 = ADVANCED_FACE ( 'NONE', ( #280, #299 ), #227, .T. ) ;
#141 = TOROIDAL_SURFACE ( 'NONE', #136, 2.860000000000000320, 2.000000000000000000 ) ;
#142 = EDGE_LOOP ( 'NONE', ( #194 ) ) ;
#143 = DIRECTION ( 'NONE',  ( -3.491481338843133355E-15, 1.224646799147353207E-16, -1.000000000000000000 ) ) ;
#144 = EDGE_LOOP ( 'NONE', ( #79 ) ) ;
#145 = CARTESIAN_POINT ( 'NONE',  ( 2.886013015238225878E-14, -1.012277099146737755E-15, 8.265869798961826831 ) ) ;
#146 = ORIENTED_EDGE ( 'NONE', *, *, #182, .F. ) ;
#147 = DIRECTION ( 'NONE',  ( -4.275831445896958607E-31, -1.000000000000000000, -1.224646799147353207E-16 ) ) ;
#148 = CARTESIAN_POINT ( 'NONE',  ( 8.728703347107833388E-16, 1.013499999999998957, 0.2500000000000000000 ) ) ;
#149 = EDGE_LOOP ( 'NONE', ( #133 ) ) ;
#150 = DIRECTION ( 'NONE',  ( 0.0000000000000000000, -1.000000000000000000, 0.0000000000000000000 ) ) ;
#151 = DATE_AND_TIME ( #61, #18 ) ;
#152 = FACE_OUTER_BOUND ( 'NONE', #59, .T. ) ;
#153 = AXIS2_PLACEMENT_3D ( 'NONE', #207, #114, #112 ) ;
#154 = PERSON_AND_ORGANIZATION ( #215, #160 ) ;
#155 = ADVANCED_FACE ( 'NONE', ( #110, #269 ), #272, .T. ) ;
#156 = DIRECTION ( 'NONE',  ( 4.275831445896958607E-31, 1.000000000000000000, 1.224646799147353207E-16 ) ) ;
#157 = CARTESIAN_POINT ( 'NONE',  ( 2.793185071074506684E-14, 1.013499999999998957, 8.000000000000000000 ) ) ;
#158 = ORIENTED_EDGE ( 'NONE', *, *, #193, .F. ) ;
#159 = ORIENTED_EDGE ( 'NONE', *, *, #68, .F. ) ;
#160 = ORGANIZATION ( 'UNSPECIFIED', 'UNSPECIFIED', '' ) ;
#161 = CC_DESIGN_PERSON_AND_ORGANIZATION_ASSIGNMENT ( #82, #43, ( #167 ) ) ;
#162 = LOCAL_TIME ( 7, 44, 51.00000000000000000, #55 ) ;
#163 = CONICAL_SURFACE ( 'NONE', #202, 0.8599999999999987654, 0.5235987755982947078 ) ;
#164 = DATE_TIME_ROLE ( 'creation_date' ) ;
#165 = ORIENTED_EDGE ( 'NONE', *, *, #260, .T. ) ;
#166 = MANIFOLD_SOLID_BREP ( 'Corps-Déplacer/Copier1[2]', #251 ) ;
#167 = PRODUCT_DEFINITION ( 'UNKNOWN', '', #22, #28 ) ;
#168 = MANIFOLD_SOLID_BREP ( 'Corps-Déplacer/Copier1[1]', #206 ) ;
#169 = CARTESIAN_POINT ( 'NONE',  ( -3.716392061342053428E-31, 1.303534861167895162E-32, -1.064416991148359412E-16 ) ) ;
#170 = EDGE_LOOP ( 'NONE', ( #105 ) ) ;
#171 = UNCERTAINTY_MEASURE_WITH_UNIT (LENGTH_MEASURE( 1.000000000000000082E-05 ), #25, 'distance_accuracy_value', 'NONE');
#172 = DIRECTION ( 'NONE',  ( 0.0000000000000000000, 1.000000000000000000, 0.0000000000000000000 ) ) ;
#173 = APPROVAL_ROLE ( '' ) ;
#174 = EDGE_LOOP ( 'NONE', ( #58 ) ) ;
#175 = DIRECTION ( 'NONE',  ( 4.275831445896958607E-31, 1.000000000000000000, 1.224646799147353207E-16 ) ) ;
#176 = DIRECTION ( 'NONE',  ( 1.000000000000000000, 0.0000000000000000000, 0.0000000000000000000 ) ) ;
#177 = ORIENTED_EDGE ( 'NONE', *, *, #46, .F. ) ;
#178 = CIRCLE ( 'NONE', #77, 1.499999999999996669 ) ;
#179 = DIRECTION ( 'NONE',  ( -3.491481338843133355E-15, 1.224646799147353207E-16, -1.000000000000000000 ) ) ;
#180 = PRODUCT_DEFINITION_SHAPE ( 'NONE', 'NONE',  #167 ) ;
#181 = VERTEX_POINT ( 'NONE', #148 ) ;
#182 = EDGE_CURVE ( 'NONE', #123, #123, #178, .T. ) ;
#183 = DIRECTION ( 'NONE',  ( 3.491481338843133355E-15, -1.224646799147353207E-16, 1.000000000000000000 ) ) ;
#184 = VERTEX_POINT ( 'NONE', #157 ) ;
#185 = CARTESIAN_POINT ( 'NONE',  ( 6.284666409917640040E-14, -2.168404344971008868E-15, 18.00000000000000000 ) ) ;
#186 = EDGE_LOOP ( 'NONE', ( #266 ) ) ;
#187 = CIRCLE ( 'NONE', #15, 1.013499999999998957 ) ;
#188 = CARTESIAN_POINT ( 'NONE',  ( 0.0000000000000000000, 0.0000000000000000000, 0.0000000000000000000 ) ) ;
#189 = PLANE ( 'NONE',  #289 ) ;
#190 = SECURITY_CLASSIFICATION ( '', '', #12 ) ;
#191 = AXIS2_PLACEMENT_3D ( 'NONE', #169, #219, #296 ) ;
#192 = CIRCLE ( 'NONE', #53, 0.8599999999999987654 ) ;
#193 = EDGE_CURVE ( 'NONE', #69, #69, #64, .T. ) ;
#194 = ORIENTED_EDGE ( 'NONE', *, *, #100, .T. ) ;
#195 = DIRECTION ( 'NONE',  ( -3.491481338843133355E-15, 1.224646799147353207E-16, -1.000000000000000000 ) ) ;
#196 = APPLICATION_PROTOCOL_DEFINITION ( 'international standard', 'config_control_design', 1994, #34 ) ;
#197 = DIRECTION ( 'NONE',  ( 0.0000000000000000000, 1.000000000000000000, 0.0000000000000000000 ) ) ;
#198 = CARTESIAN_POINT ( 'NONE',  ( 1.735266225405037467E-13, 1.499999999999995559, 49.70000000000000284 ) ) ;
#199 = EDGE_LOOP ( 'NONE', ( #225 ) ) ;
#200 = CARTESIAN_POINT ( 'NONE',  ( 8.728703347107829444E-16, -3.061616997868381785E-17, 0.2499999999999998890 ) ) ;
#201 = ADVANCED_FACE ( 'NONE', ( #65 ), #80, .F. ) ;
#202 = AXIS2_PLACEMENT_3D ( 'NONE', #244, #122, #221 ) ;
#203 = DIRECTION ( 'NONE',  ( 3.491481338843133355E-15, -1.224646799147353207E-16, 1.000000000000000000 ) ) ;
#204 = MECHANICAL_CONTEXT ( 'NONE', #14, 'mechanical' ) ;
#205 = CARTESIAN_POINT ( 'NONE',  ( 1.745740669421566678E-13, -6.123233995736766085E-15, 50.00000000000000000 ) ) ;
#206 = CLOSED_SHELL ( 'NONE', ( #24, #73, #115, #286, #237, #37, #121, #95 ) ) ;
#207 = CARTESIAN_POINT ( 'NONE',  ( 0.0000000000000000000, 0.0000000000000000000, 0.0000000000000000000 ) ) ;
#208 = DIRECTION ( 'NONE',  ( -3.491481338843133355E-15, 1.224646799147353207E-16, -1.000000000000000000 ) ) ;
#209 = AXIS2_PLACEMENT_3D ( 'NONE', #41, #125, #197 ) ;
#210 = CARTESIAN_POINT ( 'NONE',  ( 6.284666409917640040E-14, -2.204364238465235428E-15, 18.00000000000000000 ) ) ;
#211 = APPROVAL_STATUS ( 'not_yet_approved' ) ;
#212 = PERSON_AND_ORGANIZATION_ROLE ( 'design_supplier' ) ;
#213 = ADVANCED_FACE ( 'NONE', ( #60 ), #89, .T. ) ;
#214 = COORDINATED_UNIVERSAL_TIME_OFFSET ( 1, 0, .AHEAD. ) ;
#215 = PERSON ( 'UNSPECIFIED', 'UNSPECIFIED', 'UNSPECIFIED', ('UNSPECIFIED'), ('UNSPECIFIED'), ('UNSPECIFIED') ) ;
#216 = CONICAL_SURFACE ( 'NONE', #119, 1.499999999999996669, 0.1745329251994260367 ) ;
#217 = CC_DESIGN_PERSON_AND_ORGANIZATION_ASSIGNMENT ( #21, #131, ( #230 ) ) ;
#218 = EDGE_LOOP ( 'NONE', ( #158 ) ) ;
#219 = DIRECTION ( 'NONE',  ( -3.491481338843133355E-15, 1.224646799147353207E-16, -1.000000000000000000 ) ) ;
#220 = EDGE_LOOP ( 'NONE', ( #159 ) ) ;
#221 = DIRECTION ( 'NONE',  ( 0.0000000000000000000, 1.000000000000000000, 0.0000000000000000000 ) ) ;
#222 = CC_DESIGN_APPROVAL ( #117, ( #190 ) ) ;
#223 = DIRECTION ( 'NONE',  ( -4.275831445896958607E-31, -1.000000000000000000, -1.224646799147353207E-16 ) ) ;
#224 = COORDINATED_UNIVERSAL_TIME_OFFSET ( 1, 0, .AHEAD. ) ;
#225 = ORIENTED_EDGE ( 'NONE', *, *, #226, .F. ) ;
#226 = EDGE_CURVE ( 'NONE', #107, #107, #62, .T. ) ;
#227 = CYLINDRICAL_SURFACE ( 'NONE', #234, 1.013499999999999623 ) ;
#228 = FACE_BOUND ( 'NONE', #7, .T. ) ;
#229 = VERTEX_POINT ( 'NONE', #254 ) ;
#230 = PRODUCT ( '200110', '200110', '', ( #204 ) ) ;
#231 = CARTESIAN_POINT ( 'NONE',  ( 0.0000000000000000000, 0.0000000000000000000, 0.0000000000000000000 ) ) ;
#232 = DIRECTION ( 'NONE',  ( 3.491481338843133355E-15, -1.224646799147353207E-16, 1.000000000000000000 ) ) ;
#233 = ORIENTED_EDGE ( 'NONE', *, *, #182, .T. ) ;
#234 = AXIS2_PLACEMENT_3D ( 'NONE', #231, #195, #156 ) ;
#235 = FACE_OUTER_BOUND ( 'NONE', #93, .T. ) ;
#236 = DIRECTION ( 'NONE',  ( 3.800552430956561994E-31, 1.000000000000000000, 1.069760406991125333E-16 ) ) ;
#237 = ADVANCED_FACE ( 'NONE', ( #278, #250 ), #216, .T. ) ;
#238 = APPROVAL_STATUS ( 'not_yet_approved' ) ;
#239 = PERSON_AND_ORGANIZATION_ROLE ( 'creator' ) ;
#240 = PERSON_AND_ORGANIZATION ( #215, #160 ) ;
#241 = CC_DESIGN_DATE_AND_TIME_ASSIGNMENT ( #45, #164, ( #167 ) ) ;
#242 = AXIS2_PLACEMENT_3D ( 'NONE', #4, #179, #49 ) ;
#243 = EDGE_LOOP ( 'NONE', ( #146 ) ) ;
#244 = CARTESIAN_POINT ( 'NONE',  ( 2.886013015238225878E-14, -1.012277099146737755E-15, 8.265869798961826831 ) ) ;
#245 = ORIENTED_EDGE ( 'NONE', *, *, #16, .T. ) ;
#246 = CONICAL_SURFACE ( 'NONE', #72, 1.200000000000001732, 0.7853981633974453924 ) ;
#247 = DIRECTION ( 'NONE',  ( 3.491481338843133355E-15, -1.224646799147353207E-16, 1.000000000000000000 ) ) ;
#248 = DIRECTION ( 'NONE',  ( 0.0000000000000000000, 0.0000000000000000000, 1.000000000000000000 ) ) ;
#249 = AXIS2_PLACEMENT_3D ( 'NONE', #111, #232, #223 ) ;
#250 = FACE_OUTER_BOUND ( 'NONE', #268, .T. ) ;
#251 = CLOSED_SHELL ( 'NONE', ( #201, #155, #140, #213 ) ) ;
#252 = CARTESIAN_POINT ( 'NONE',  ( 2.793185071074506684E-14, -9.797174393178825657E-16, 8.000000000000000000 ) ) ;
#253 = CC_DESIGN_DATE_AND_TIME_ASSIGNMENT ( #13, #139, ( #190 ) ) ;
#254 = CARTESIAN_POINT ( 'NONE',  ( 2.886013015238225878E-14, 0.8599999999999977662, 8.265869798961826831 ) ) ;
#255 = DIRECTION ( 'NONE',  ( -3.491481338843133355E-15, 1.224646799147353207E-16, -1.000000000000000000 ) ) ;
#256 = CARTESIAN_POINT ( 'NONE',  ( 7.613034594122895434E-14, 1.499999999999994005, 21.80459769160730232 ) ) ;
#257 = DIRECTION ( 'NONE',  ( -3.491481338843133355E-15, 1.224646799147353207E-16, -1.000000000000000000 ) ) ;
#258 = CARTESIAN_POINT ( 'NONE',  ( 8.728703347107829444E-16, -3.061616997868381785E-17, 0.2499999999999998890 ) ) ;
#259 = AXIS2_PLACEMENT_3D ( 'NONE', #200, #203, #67 ) ;
#260 = EDGE_CURVE ( 'NONE', #66, #66, #54, .T. ) ;
#261 = CC_DESIGN_APPROVAL ( #128, ( #167 ) ) ;
#262 = DATE_AND_TIME ( #96, #76 ) ;
#263 = COORDINATED_UNIVERSAL_TIME_OFFSET ( 1, 0, .AHEAD. ) ;
#264 = EDGE_LOOP ( 'NONE', ( #245 ) ) ;
#265 = EDGE_CURVE ( 'NONE', #126, #126, #98, .T. ) ;
#266 = ORIENTED_EDGE ( 'NONE', *, *, #260, .F. ) ;
#267 = FACE_BOUND ( 'NONE', #84, .T. ) ;
#268 = EDGE_LOOP ( 'NONE', ( #233 ) ) ;
#269 = FACE_OUTER_BOUND ( 'NONE', #142, .T. ) ;
#270 = CARTESIAN_POINT ( 'NONE',  ( 1.745740669421566678E-13, 1.199999999999995515, 50.00000000000000000 ) ) ;
#271 = EDGE_LOOP ( 'NONE', ( #276 ) ) ;
#272 = CONICAL_SURFACE ( 'NONE', #259, 1.013499999999998957, 0.5235987755982923764 ) ;
#273 = DIRECTION ( 'NONE',  ( 4.275831445896958607E-31, 1.000000000000000000, 1.224646799147353207E-16 ) ) ;
#274 = FACE_OUTER_BOUND ( 'NONE', #218, .T. ) ;
#275 = CARTESIAN_POINT ( 'NONE',  ( 0.0000000000000000000, 0.8691624327025947450, 0.0000000000000000000 ) ) ;
#276 = ORIENTED_EDGE ( 'NONE', *, *, #294, .T. ) ;
#277 = AXIS2_PLACEMENT_3D ( 'NONE', #26, #103, #172 ) ;
#278 = FACE_BOUND ( 'NONE', #170, .T. ) ;
#279 = APPLICATION_PROTOCOL_DEFINITION ( 'international standard', 'config_control_design', 1994, #14 ) ;
#280 = FACE_OUTER_BOUND ( 'NONE', #302, .T. ) ;
#281 = CARTESIAN_POINT ( 'NONE',  ( 6.405924284287273902E-14, 0.8903844939755785060, 18.34729635533384240 ) ) ;
#282 = DIRECTION ( 'NONE',  ( 0.0000000000000000000, 1.000000000000000000, 0.0000000000000000000 ) ) ;
#283 = DIRECTION ( 'NONE',  ( 4.275831445896958607E-31, 1.000000000000000000, 1.224646799147353207E-16 ) ) ;
#284 = DIRECTION ( 'NONE',  ( 3.491481338843133355E-15, -1.224646799147353207E-16, 1.000000000000000000 ) ) ;
#285 = CARTESIAN_POINT ( 'NONE',  ( 1.745740669421566678E-13, 8.998558695971067645E-33, 50.00000000000000000 ) ) ;
#286 = ADVANCED_FACE ( 'NONE', ( #6, #152 ), #141, .F. ) ;
#287 = APPROVAL_PERSON_ORGANIZATION ( #154, #128, #173 ) ;
#288 = PERSON_AND_ORGANIZATION ( #215, #160 ) ;
#289 = AXIS2_PLACEMENT_3D ( 'NONE', #31, #284, #70 ) ;
#290 = CALENDAR_DATE ( 2021, 30, 11 ) ;
#291 = APPROVAL_PERSON_ORGANIZATION ( #138, #117, #78 ) ;
#292 = AXIS2_PLACEMENT_3D ( 'NONE', #210, #9, #282 ) ;
#293 = ORIENTED_EDGE ( 'NONE', *, *, #100, .F. ) ;
#294 = EDGE_CURVE ( 'NONE', #184, #184, #109, .T. ) ;
#295 = EDGE_LOOP ( 'NONE', ( #177 ) ) ;
#296 = DIRECTION ( 'NONE',  ( 4.275831445896958607E-31, 1.000000000000000000, 1.224646799147353207E-16 ) ) ;
#297 = DIRECTION ( 'NONE',  ( -3.491481338843133355E-15, 1.224646799147353207E-16, -1.000000000000000000 ) ) ;
#298 =( NAMED_UNIT ( * ) PLANE_ANGLE_UNIT ( ) SI_UNIT ( $, .RADIAN. ) );
#299 = FACE_OUTER_BOUND ( 'NONE', #271, .T. ) ;
#300 = DIRECTION ( 'NONE',  ( -3.491481338843133355E-15, 1.224646799147353207E-16, -1.000000000000000000 ) ) ;
#301 = APPROVAL_STATUS ( 'not_yet_approved' ) ;
#302 = EDGE_LOOP ( 'NONE', ( #293 ) ) ;
#303 = APPROVAL ( #211, 'UNSPECIFIED' ) ;
ENDSEC;
END-ISO-10303-21;
