ISO-10303-21;
HEADER;
FILE_DESCRIPTION (( 'STEP AP203' ),
    '1' );
FILE_NAME ('200109.step',
    '2021-11-30T06:44:50',
    ( '' ),
    ( '' ),
    'SwSTEP 2.0',
    'SolidWorks 2019',
    '' );
FILE_SCHEMA (( 'CONFIG_CONTROL_DESIGN' ));
ENDSEC;

DATA;
#1 = EDGE_CURVE ( 'NONE', #109, #109, #26, .T. ) ;
#2 = AXIS2_PLACEMENT_3D ( 'NONE', #150, #216, #16 ) ;
#3 = EDGE_CURVE ( 'NONE', #134, #134, #164, .T. ) ;
#4 = DIRECTION ( 'NONE',  ( 0.0000000000000000000, 1.000000000000000000, 0.0000000000000000000 ) ) ;
#5 = CARTESIAN_POINT ( 'NONE',  ( 6.284666409917640040E-14, 0.8549999999999972067, 18.00000000000000000 ) ) ;
#6 = FACE_BOUND ( 'NONE', #174, .T. ) ;
#7 = DATE_TIME_ROLE ( 'creation_date' ) ;
#8 = DIRECTION ( 'NONE',  ( 0.0000000000000000000, 1.000000000000000000, 0.0000000000000000000 ) ) ;
#9 = PERSON ( 'UNSPECIFIED', 'UNSPECIFIED', 'UNSPECIFIED', ('UNSPECIFIED'), ('UNSPECIFIED'), ('UNSPECIFIED') ) ;
#10 = AXIS2_PLACEMENT_3D ( 'NONE', #288, #81, #173 ) ;
#11 = CONICAL_SURFACE ( 'NONE', #93, 0.8549999999999984279, 0.5235987755982944858 ) ;
#12 = EDGE_LOOP ( 'NONE', ( #191 ) ) ;
#13 = CARTESIAN_POINT ( 'NONE',  ( 7.622935181443155130E-14, -2.673765735535994340E-15, 21.83295410070539688 ) ) ;
#14 = ORIENTED_EDGE ( 'NONE', *, *, #256, .T. ) ;
#15 = VERTEX_POINT ( 'NONE', #44 ) ;
#16 = DIRECTION ( 'NONE',  ( 4.275831445896958607E-31, 1.000000000000000000, 1.224646799147353454E-16 ) ) ;
#17 = EDGE_LOOP ( 'NONE', ( #34 ) ) ;
#18 = FACE_OUTER_BOUND ( 'NONE', #97, .T. ) ;
#19 = TOROIDAL_SURFACE ( 'NONE', #22, 2.854999999999999538, 2.000000000000000444 ) ;
#20 = DIRECTION ( 'NONE',  ( -3.491481338843133355E-15, 1.224646799147353207E-16, -1.000000000000000000 ) ) ;
#21 = CC_DESIGN_PERSON_AND_ORGANIZATION_ASSIGNMENT ( #124, #262, ( #126 ) ) ;
#22 = AXIS2_PLACEMENT_3D ( 'NONE', #66, #156, #251 ) ;
#23 = DESIGN_CONTEXT ( 'detailed design', #117, 'design' ) ;
#24 = CARTESIAN_POINT ( 'NONE',  ( 2.886013015238225878E-14, -1.012277099146737755E-15, 8.265869798961826831 ) ) ;
#25 = AXIS2_PLACEMENT_3D ( 'NONE', #127, #194, #4 ) ;
#26 = CIRCLE ( 'NONE', #300, 1.008499999999999730 ) ;
#27 = EDGE_CURVE ( 'NONE', #155, #155, #41, .T. ) ;
#28 = DATE_AND_TIME ( #234, #42 ) ;
#29 = APPROVAL_ROLE ( '' ) ;
#30 = AXIS2_PLACEMENT_3D ( 'NONE', #85, #255, #104 ) ;
#31 =( NAMED_UNIT ( * ) SI_UNIT ( $, .STERADIAN. ) SOLID_ANGLE_UNIT ( ) );
#32 = DIRECTION ( 'NONE',  ( -3.491481338843133355E-15, 1.224646799147353207E-16, -1.000000000000000000 ) ) ;
#33 = COORDINATED_UNIVERSAL_TIME_OFFSET ( 1, 0, .AHEAD. ) ;
#34 = ORIENTED_EDGE ( 'NONE', *, *, #184, .F. ) ;
#35 =( LENGTH_UNIT ( ) NAMED_UNIT ( * ) SI_UNIT ( .MILLI., .METRE. ) );
#36 = PERSON_AND_ORGANIZATION_ROLE ( 'creator' ) ;
#37 = CC_DESIGN_SECURITY_CLASSIFICATION ( #112, ( #229 ) ) ;
#38 = ORIENTED_EDGE ( 'NONE', *, *, #181, .F. ) ;
#39 = CARTESIAN_POINT ( 'NONE',  ( 8.728703347107831416E-16, 1.008499999999998620, 0.2499999999999999445 ) ) ;
#40 = CARTESIAN_POINT ( 'NONE',  ( 1.745740669421566678E-13, -6.123233995736766085E-15, 50.00000000000000000 ) ) ;
#41 = CIRCLE ( 'NONE', #25, 1.500000000000001554 ) ;
#42 = LOCAL_TIME ( 7, 44, 50.00000000000000000, #239 ) ;
#43 = EDGE_LOOP ( 'NONE', ( #214 ) ) ;
#44 = CARTESIAN_POINT ( 'NONE',  ( 1.745740669421566678E-13, 1.199999999999995515, 50.00000000000000000 ) ) ;
#45 = DIRECTION ( 'NONE',  ( -3.491481338843133355E-15, 1.224646799147353207E-16, -1.000000000000000000 ) ) ;
#46 = CARTESIAN_POINT ( 'NONE',  ( 2.793185071074506684E-14, 1.008499999999998620, 8.000000000000000000 ) ) ;
#47 = ORIENTED_EDGE ( 'NONE', *, *, #3, .F. ) ;
#48 = FACE_OUTER_BOUND ( 'NONE', #43, .T. ) ;
#49 = DIRECTION ( 'NONE',  ( -3.491481338843133355E-15, 1.224646799147353207E-16, -1.000000000000000000 ) ) ;
#50 = DIRECTION ( 'NONE',  ( 3.491481338843133355E-15, -1.224646799147353207E-16, 1.000000000000000000 ) ) ;
#51 = CC_DESIGN_PERSON_AND_ORGANIZATION_ASSIGNMENT ( #293, #192, ( #182 ) ) ;
#52 = PERSON_AND_ORGANIZATION_ROLE ( 'design_supplier' ) ;
#53 = CALENDAR_DATE ( 2021, 30, 11 ) ;
#54 = DIRECTION ( 'NONE',  ( 4.275831445896958607E-31, 1.000000000000000000, 1.224646799147353207E-16 ) ) ;
#55 = CLOSED_SHELL ( 'NONE', ( #165, #94, #100, #277, #82, #215, #142, #200 ) ) ;
#56 = UNCERTAINTY_MEASURE_WITH_UNIT (LENGTH_MEASURE( 1.000000000000000082E-05 ), #35, 'distance_accuracy_value', 'NONE');
#57 = FACE_OUTER_BOUND ( 'NONE', #154, .T. ) ;
#58 = FACE_OUTER_BOUND ( 'NONE', #67, .T. ) ;
#59 = CARTESIAN_POINT ( 'NONE',  ( 2.793185071074506684E-14, 7.562538704072397747E-33, 8.000000000000000000 ) ) ;
#60 = EDGE_LOOP ( 'NONE', ( #145 ) ) ;
#61 = EDGE_CURVE ( 'NONE', #103, #103, #140, .T. ) ;
#62 = CARTESIAN_POINT ( 'NONE',  ( 2.793185071074506684E-14, -9.797174393178825657E-16, 8.000000000000000000 ) ) ;
#63 = LOCAL_TIME ( 7, 44, 50.00000000000000000, #149 ) ;
#64 = ORIENTED_EDGE ( 'NONE', *, *, #61, .T. ) ;
#65 = CALENDAR_DATE ( 2021, 30, 11 ) ;
#66 = CARTESIAN_POINT ( 'NONE',  ( 6.284666409917640040E-14, -2.168404344971008868E-15, 18.00000000000000000 ) ) ;
#67 = EDGE_LOOP ( 'NONE', ( #285 ) ) ;
#68 = DIRECTION ( 'NONE',  ( 3.491481338843133355E-15, -1.224646799147353207E-16, 1.000000000000000000 ) ) ;
#69 = FACE_OUTER_BOUND ( 'NONE', #252, .T. ) ;
#70 = APPLICATION_CONTEXT ( 'configuration controlled 3d designs of mechanical parts and assemblies' ) ;
#71 = AXIS2_PLACEMENT_3D ( 'NONE', #245, #20, #88 ) ;
#72 = CIRCLE ( 'NONE', #108, 1.499999999999996669 ) ;
#73 = ADVANCED_FACE ( 'NONE', ( #58, #147 ), #161, .T. ) ;
#74 = APPROVAL ( #178, 'UNSPECIFIED' ) ;
#75 = CC_DESIGN_APPROVAL ( #205, ( #229 ) ) ;
#76 = SECURITY_CLASSIFICATION_LEVEL ( 'unclassified' ) ;
#77 = APPROVAL_DATE_TIME ( #28, #205 ) ;
#78 = CARTESIAN_POINT ( 'NONE',  ( -3.695012904112566086E-31, 1.296036062254584998E-32, -1.058293757152621920E-16 ) ) ;
#79 = COORDINATED_UNIVERSAL_TIME_OFFSET ( 1, 0, .AHEAD. ) ;
#80 = COORDINATED_UNIVERSAL_TIME_OFFSET ( 1, 0, .AHEAD. ) ;
#81 = DIRECTION ( 'NONE',  ( -3.491481338843133355E-15, 1.224646799147353207E-16, -1.000000000000000000 ) ) ;
#82 = ADVANCED_FACE ( 'NONE', ( #278, #163 ), #120, .T. ) ;
#83 = ORIENTED_EDGE ( 'NONE', *, *, #181, .T. ) ;
#84 = VERTEX_POINT ( 'NONE', #5 ) ;
#85 = CARTESIAN_POINT ( 'NONE',  ( -1.847506452056283043E-31, 6.480180311272924989E-33, -5.291468785763109598E-17 ) ) ;
#86 = EDGE_LOOP ( 'NONE', ( #121 ) ) ;
#87 = APPLICATION_PROTOCOL_DEFINITION ( 'international standard', 'config_control_design', 1994, #117 ) ;
#88 = DIRECTION ( 'NONE',  ( 0.0000000000000000000, 1.000000000000000000, 0.0000000000000000000 ) ) ;
#89 = MANIFOLD_SOLID_BREP ( 'Corps-Déplacer/Copier1[1]', #55 ) ;
#90 = CIRCLE ( 'NONE', #301, 1.008499999999999730 ) ;
#91 = FACE_OUTER_BOUND ( 'NONE', #17, .T. ) ;
#92 = DIRECTION ( 'NONE',  ( -4.275831445896958607E-31, -1.000000000000000000, -1.224646799147353207E-16 ) ) ;
#93 = AXIS2_PLACEMENT_3D ( 'NONE', #24, #302, #265 ) ;
#94 = ADVANCED_FACE ( 'NONE', ( #115, #227 ), #11, .T. ) ;
#95 = AXIS2_PLACEMENT_3D ( 'NONE', #130, #157, #199 ) ;
#96 = AXIS2_PLACEMENT_3D ( 'NONE', #40, #177, #248 ) ;
#97 = EDGE_LOOP ( 'NONE', ( #128 ) ) ;
#98 = EDGE_LOOP ( 'NONE', ( #211 ) ) ;
#99 = VERTEX_POINT ( 'NONE', #291 ) ;
#100 = ADVANCED_FACE ( 'NONE', ( #57, #268 ), #289, .T. ) ;
#101 = APPROVAL_PERSON_ORGANIZATION ( #172, #205, #284 ) ;
#102 = EDGE_LOOP ( 'NONE', ( #105 ) ) ;
#103 = VERTEX_POINT ( 'NONE', #39 ) ;
#104 = DIRECTION ( 'NONE',  ( -4.275831445896958607E-31, -1.000000000000000000, -1.224646799147353207E-16 ) ) ;
#105 = ORIENTED_EDGE ( 'NONE', *, *, #258, .F. ) ;
#106 = DIRECTION ( 'NONE',  ( 0.0000000000000000000, 1.000000000000000000, 0.0000000000000000000 ) ) ;
#107 = CARTESIAN_POINT ( 'NONE',  ( 2.886013015238225878E-14, -1.012277099146737755E-15, 8.265869798961826831 ) ) ;
#108 = AXIS2_PLACEMENT_3D ( 'NONE', #13, #222, #133 ) ;
#109 = VERTEX_POINT ( 'NONE', #46 ) ;
#110 = LOCAL_TIME ( 7, 44, 50.00000000000000000, #80 ) ;
#111 = ADVANCED_FACE ( 'NONE', ( #6, #193 ), #272, .T. ) ;
#112 = SECURITY_CLASSIFICATION ( '', '', #76 ) ;
#113 = PRODUCT_RELATED_PRODUCT_CATEGORY ( 'detail', '', ( #182 ) ) ;
#114 = DIRECTION ( 'NONE',  ( -3.491481338843133355E-15, 1.224646799147353207E-16, -1.000000000000000000 ) ) ;
#115 = FACE_OUTER_BOUND ( 'NONE', #148, .T. ) ;
#116 = CLOSED_SHELL ( 'NONE', ( #122, #111, #73, #136 ) ) ;
#117 = APPLICATION_CONTEXT ( 'configuration controlled 3d designs of mechanical parts and assemblies' ) ;
#118 = CALENDAR_DATE ( 2021, 30, 11 ) ;
#119 = DATE_AND_TIME ( #141, #110 ) ;
#120 = CONICAL_SURFACE ( 'NONE', #282, 1.499999999999996669, 0.1745329251994260644 ) ;
#121 = ORIENTED_EDGE ( 'NONE', *, *, #160, .T. ) ;
#122 = ADVANCED_FACE ( 'NONE', ( #230 ), #280, .F. ) ;
#123 = DIRECTION ( 'NONE',  ( -3.491481338843133355E-15, 1.224646799147353207E-16, -1.000000000000000000 ) ) ;
#124 = PERSON_AND_ORGANIZATION ( #9, #190 ) ;
#125 = PERSON_AND_ORGANIZATION ( #9, #190 ) ;
#126 = PRODUCT_DEFINITION ( 'UNKNOWN', '', #229, #23 ) ;
#127 = CARTESIAN_POINT ( 'NONE',  ( 1.735266225405037467E-13, -6.086494591762345225E-15, 49.70000000000000284 ) ) ;
#128 = ORIENTED_EDGE ( 'NONE', *, *, #1, .T. ) ;
#129 = VERTEX_POINT ( 'NONE', #197 ) ;
#130 = CARTESIAN_POINT ( 'NONE',  ( 6.405924284287275164E-14, -2.246895775456749140E-15, 18.34729635533384595 ) ) ;
#131 = CIRCLE ( 'NONE', #95, 0.8853844939755800558 ) ;
#132 = ORIENTED_EDGE ( 'NONE', *, *, #3, .T. ) ;
#133 = DIRECTION ( 'NONE',  ( 0.0000000000000000000, 1.000000000000000000, 0.0000000000000000000 ) ) ;
#134 = VERTEX_POINT ( 'NONE', #246 ) ;
#135 = DIRECTION ( 'NONE',  ( -3.491481338843133355E-15, 1.224646799147353207E-16, -1.000000000000000000 ) ) ;
#136 = ADVANCED_FACE ( 'NONE', ( #253 ), #298, .T. ) ;
#137 = APPROVAL ( #232, 'UNSPECIFIED' ) ;
#138 = AXIS2_PLACEMENT_3D ( 'NONE', #201, #68, #292 ) ;
#139 = DIRECTION ( 'NONE',  ( 0.0000000000000000000, -1.000000000000000000, 0.0000000000000000000 ) ) ;
#140 = CIRCLE ( 'NONE', #10, 1.008499999999998620 ) ;
#141 = CALENDAR_DATE ( 2021, 30, 11 ) ;
#142 = ADVANCED_FACE ( 'NONE', ( #48, #220 ), #260, .T. ) ;
#143 = CIRCLE ( 'NONE', #71, 0.8549999999999994271 ) ;
#144 = EDGE_LOOP ( 'NONE', ( #64 ) ) ;
#145 = ORIENTED_EDGE ( 'NONE', *, *, #228, .F. ) ;
#146 = DIRECTION ( 'NONE',  ( 1.000000000000000000, 0.0000000000000000000, 0.0000000000000000000 ) ) ;
#147 = FACE_OUTER_BOUND ( 'NONE', #86, .T. ) ;
#148 = EDGE_LOOP ( 'NONE', ( #221 ) ) ;
#149 = COORDINATED_UNIVERSAL_TIME_OFFSET ( 1, 0, .AHEAD. ) ;
#150 = CARTESIAN_POINT ( 'NONE',  ( 0.0000000000000000000, 0.0000000000000000000, 0.0000000000000000000 ) ) ;
#151 = EDGE_LOOP ( 'NONE', ( #132 ) ) ;
#152 = CARTESIAN_POINT ( 'NONE',  ( 2.793185071074506684E-14, 1.008499999999998620, 8.000000000000000000 ) ) ;
#153 = PLANE ( 'NONE',  #204 ) ;
#154 = EDGE_LOOP ( 'NONE', ( #208 ) ) ;
#155 = VERTEX_POINT ( 'NONE', #175 ) ;
#156 = DIRECTION ( 'NONE',  ( -3.491481338843133355E-15, 1.224646799147353207E-16, -1.000000000000000000 ) ) ;
#157 = DIRECTION ( 'NONE',  ( -3.491481338843133355E-15, 1.224646799147353207E-16, -1.000000000000000000 ) ) ;
#158 = CYLINDRICAL_SURFACE ( 'NONE', #2, 1.499999999999999112 ) ;
#159 = AXIS2_PLACEMENT_3D ( 'NONE', #78, #170, #54 ) ;
#160 = EDGE_CURVE ( 'NONE', #267, #267, #90, .T. ) ;
#161 = CYLINDRICAL_SURFACE ( 'NONE', #247, 1.008499999999999064 ) ;
#162 = AXIS2_PLACEMENT_3D ( 'NONE', #243, #32, #210 ) ;
#163 = FACE_OUTER_BOUND ( 'NONE', #237, .T. ) ;
#164 = CIRCLE ( 'NONE', #159, 0.8641624327025941854 ) ;
#165 = ADVANCED_FACE ( 'NONE', ( #18 ), #270, .F. ) ;
#166 = DATE_AND_TIME ( #118, #225 ) ;
#167 = CIRCLE ( 'NONE', #279, 0.8549999999999984279 ) ;
#168 = DATE_TIME_ROLE ( 'classification_date' ) ;
#169 = PERSON_AND_ORGANIZATION ( #9, #190 ) ;
#170 = DIRECTION ( 'NONE',  ( -3.491481338843133355E-15, 1.224646799147353207E-16, -1.000000000000000000 ) ) ;
#171 = VERTEX_POINT ( 'NONE', #233 ) ;
#172 = PERSON_AND_ORGANIZATION ( #9, #190 ) ;
#173 = DIRECTION ( 'NONE',  ( 3.819395031010884594E-31, 1.000000000000000000, 1.075064127402583992E-16 ) ) ;
#174 = EDGE_LOOP ( 'NONE', ( #47 ) ) ;
#175 = CARTESIAN_POINT ( 'NONE',  ( 1.735266225405037467E-13, 1.499999999999995559, 49.70000000000000284 ) ) ;
#176 = CC_DESIGN_APPROVAL ( #137, ( #112 ) ) ;
#177 = DIRECTION ( 'NONE',  ( -3.491481338843133355E-15, 1.224646799147353207E-16, -1.000000000000000000 ) ) ;
#178 = APPROVAL_STATUS ( 'not_yet_approved' ) ;
#179 = DIRECTION ( 'NONE',  ( 0.0000000000000000000, 1.000000000000000000, 0.0000000000000000000 ) ) ;
#180 = FACE_OUTER_BOUND ( 'NONE', #102, .T. ) ;
#181 = EDGE_CURVE ( 'NONE', #129, #129, #131, .T. ) ;
#182 = PRODUCT ( '200109', '200109', '', ( #209 ) ) ;
#183 = DIRECTION ( 'NONE',  ( -3.491481338843133355E-15, 1.224646799147353207E-16, -1.000000000000000000 ) ) ;
#184 = EDGE_CURVE ( 'NONE', #15, #15, #202, .T. ) ;
#185 = MANIFOLD_SOLID_BREP ( 'Corps-Déplacer/Copier1[2]', #116 ) ;
#186 = DIRECTION ( 'NONE',  ( 4.275831445896958607E-31, 1.000000000000000000, 1.224646799147352961E-16 ) ) ;
#187 = APPROVAL_PERSON_ORGANIZATION ( #286, #74, #271 ) ;
#188 = DIRECTION ( 'NONE',  ( -3.819395031010884594E-31, -1.000000000000000000, -1.075064127402583992E-16 ) ) ;
#189 = CC_DESIGN_PERSON_AND_ORGANIZATION_ASSIGNMENT ( #213, #263, ( #112 ) ) ;
#190 = ORGANIZATION ( 'UNSPECIFIED', 'UNSPECIFIED', '' ) ;
#191 = ORIENTED_EDGE ( 'NONE', *, *, #258, .T. ) ;
#192 = PERSON_AND_ORGANIZATION_ROLE ( 'design_owner' ) ;
#193 = FACE_OUTER_BOUND ( 'NONE', #144, .T. ) ;
#194 = DIRECTION ( 'NONE',  ( -3.491481338843133355E-15, 1.224646799147353207E-16, -1.000000000000000000 ) ) ;
#195 = AXIS2_PLACEMENT_3D ( 'NONE', #59, #294, #92 ) ;
#196 = ORIENTED_EDGE ( 'NONE', *, *, #228, .T. ) ;
#197 = CARTESIAN_POINT ( 'NONE',  ( 6.405924284287275164E-14, 0.8853844939755778354, 18.34729635533384595 ) ) ;
#198 = DIRECTION ( 'NONE',  ( 0.0000000000000000000, 1.000000000000000000, 0.0000000000000000000 ) ) ;
#199 = DIRECTION ( 'NONE',  ( 0.0000000000000000000, 1.000000000000000000, 0.0000000000000000000 ) ) ;
#200 = ADVANCED_FACE ( 'NONE', ( #91 ), #153, .F. ) ;
#201 = CARTESIAN_POINT ( 'NONE',  ( 2.793185071074506684E-14, 7.562538704072397747E-33, 8.000000000000000000 ) ) ;
#202 = CIRCLE ( 'NONE', #276, 1.200000000000001732 ) ;
#203 = APPROVAL_PERSON_ORGANIZATION ( #283, #137, #29 ) ;
#204 = AXIS2_PLACEMENT_3D ( 'NONE', #275, #135, #274 ) ;
#205 = APPROVAL ( #231, 'UNSPECIFIED' ) ;
#206 = SHAPE_DEFINITION_REPRESENTATION ( #254, #281 ) ;
#207 =( GEOMETRIC_REPRESENTATION_CONTEXT ( 3 ) GLOBAL_UNCERTAINTY_ASSIGNED_CONTEXT ( ( #56 ) ) GLOBAL_UNIT_ASSIGNED_CONTEXT ( ( #35, #269, #31 ) ) REPRESENTATION_CONTEXT ( 'NONE', 'WORKASPACE' ) );
#208 = ORIENTED_EDGE ( 'NONE', *, *, #256, .F. ) ;
#209 = MECHANICAL_CONTEXT ( 'NONE', #70, 'mechanical' ) ;
#210 = DIRECTION ( 'NONE',  ( 4.275831445896958607E-31, 1.000000000000000000, 1.224646799147353207E-16 ) ) ;
#211 = ORIENTED_EDGE ( 'NONE', *, *, #184, .T. ) ;
#212 = DATE_AND_TIME ( #53, #63 ) ;
#213 = PERSON_AND_ORGANIZATION ( #9, #190 ) ;
#214 = ORIENTED_EDGE ( 'NONE', *, *, #27, .F. ) ;
#215 = ADVANCED_FACE ( 'NONE', ( #223, #69 ), #158, .T. ) ;
#216 = DIRECTION ( 'NONE',  ( -3.491481338843133355E-15, 1.224646799147353207E-16, -1.000000000000000000 ) ) ;
#217 = EDGE_LOOP ( 'NONE', ( #83 ) ) ;
#218 = APPLICATION_PROTOCOL_DEFINITION ( 'international standard', 'config_control_design', 1994, #70 ) ;
#219 = CC_DESIGN_DATE_AND_TIME_ASSIGNMENT ( #166, #168, ( #112 ) ) ;
#220 = FACE_BOUND ( 'NONE', #98, .T. ) ;
#221 = ORIENTED_EDGE ( 'NONE', *, *, #1, .F. ) ;
#222 = DIRECTION ( 'NONE',  ( -3.491481338843133355E-15, 1.224646799147353207E-16, -1.000000000000000000 ) ) ;
#223 = FACE_OUTER_BOUND ( 'NONE', #60, .T. ) ;
#224 = CC_DESIGN_APPROVAL ( #74, ( #126 ) ) ;
#225 = LOCAL_TIME ( 7, 44, 50.00000000000000000, #33 ) ;
#226 = CARTESIAN_POINT ( 'NONE',  ( 0.0000000000000000000, 0.0000000000000000000, 0.0000000000000000000 ) ) ;
#227 = FACE_BOUND ( 'NONE', #240, .T. ) ;
#228 = EDGE_CURVE ( 'NONE', #99, #99, #72, .T. ) ;
#229 = PRODUCT_DEFINITION_FORMATION_WITH_SPECIFIED_SOURCE ( 'ANY', '', #182, .NOT_KNOWN. ) ;
#230 = FACE_OUTER_BOUND ( 'NONE', #151, .T. ) ;
#231 = APPROVAL_STATUS ( 'not_yet_approved' ) ;
#232 = APPROVAL_STATUS ( 'not_yet_approved' ) ;
#233 = CARTESIAN_POINT ( 'NONE',  ( 2.886013015238225878E-14, 0.8549999999999974287, 8.265869798961826831 ) ) ;
#234 = CALENDAR_DATE ( 2021, 30, 11 ) ;
#235 = AXIS2_PLACEMENT_3D ( 'NONE', #287, #303, #188 ) ;
#236 = CARTESIAN_POINT ( 'NONE',  ( 2.793185071074506684E-14, -9.797174393178825657E-16, 8.000000000000000000 ) ) ;
#237 = EDGE_LOOP ( 'NONE', ( #196 ) ) ;
#238 = APPROVAL_DATE_TIME ( #250, #74 ) ;
#239 = COORDINATED_UNIVERSAL_TIME_OFFSET ( 1, 0, .AHEAD. ) ;
#240 = EDGE_LOOP ( 'NONE', ( #14 ) ) ;
#241 = EDGE_LOOP ( 'NONE', ( #38 ) ) ;
#242 = CARTESIAN_POINT ( 'NONE',  ( 0.0000000000000000000, 0.0000000000000000000, 0.0000000000000000000 ) ) ;
#243 = CARTESIAN_POINT ( 'NONE',  ( 0.0000000000000000000, 0.0000000000000000000, 0.0000000000000000000 ) ) ;
#244 = CC_DESIGN_PERSON_AND_ORGANIZATION_ASSIGNMENT ( #169, #52, ( #229 ) ) ;
#245 = CARTESIAN_POINT ( 'NONE',  ( 6.284666409917640040E-14, -2.204364238465235428E-15, 18.00000000000000000 ) ) ;
#246 = CARTESIAN_POINT ( 'NONE',  ( 4.276423536147513034E-47, 0.8641624327025941854, 0.0000000000000000000 ) ) ;
#247 = AXIS2_PLACEMENT_3D ( 'NONE', #226, #114, #186 ) ;
#248 = DIRECTION ( 'NONE',  ( 0.0000000000000000000, 1.000000000000000000, 0.0000000000000000000 ) ) ;
#249 = EDGE_LOOP ( 'NONE', ( #295 ) ) ;
#250 = DATE_AND_TIME ( #65, #296 ) ;
#251 = DIRECTION ( 'NONE',  ( 4.275831445896959482E-31, 1.000000000000000000, 1.224646799147353207E-16 ) ) ;
#252 = EDGE_LOOP ( 'NONE', ( #290 ) ) ;
#253 = FACE_OUTER_BOUND ( 'NONE', #249, .T. ) ;
#254 = PRODUCT_DEFINITION_SHAPE ( 'NONE', 'NONE',  #126 ) ;
#255 = DIRECTION ( 'NONE',  ( 3.491481338843133355E-15, -1.224646799147353207E-16, 1.000000000000000000 ) ) ;
#256 = EDGE_CURVE ( 'NONE', #171, #171, #167, .T. ) ;
#257 = AXIS2_PLACEMENT_3D ( 'NONE', #242, #264, #146 ) ;
#258 = EDGE_CURVE ( 'NONE', #84, #84, #143, .T. ) ;
#259 = CARTESIAN_POINT ( 'NONE',  ( 7.622935181443155130E-14, -2.673765735535994340E-15, 21.83295410070539688 ) ) ;
#260 = CONICAL_SURFACE ( 'NONE', #96, 1.200000000000001732, 0.7853981633974453924 ) ;
#261 = APPROVAL_DATE_TIME ( #119, #137 ) ;
#262 = PERSON_AND_ORGANIZATION_ROLE ( 'creator' ) ;
#263 = PERSON_AND_ORGANIZATION_ROLE ( 'classification_officer' ) ;
#264 = DIRECTION ( 'NONE',  ( 0.0000000000000000000, 0.0000000000000000000, 1.000000000000000000 ) ) ;
#265 = DIRECTION ( 'NONE',  ( 0.0000000000000000000, 1.000000000000000000, 0.0000000000000000000 ) ) ;
#266 = CC_DESIGN_DATE_AND_TIME_ASSIGNMENT ( #212, #7, ( #126 ) ) ;
#267 = VERTEX_POINT ( 'NONE', #152 ) ;
#268 = FACE_OUTER_BOUND ( 'NONE', #12, .T. ) ;
#269 =( NAMED_UNIT ( * ) PLANE_ANGLE_UNIT ( ) SI_UNIT ( $, .RADIAN. ) );
#270 = PLANE ( 'NONE',  #138 ) ;
#271 = APPROVAL_ROLE ( '' ) ;
#272 = CONICAL_SURFACE ( 'NONE', #235, 1.008499999999998620, 0.5235987755982928205 ) ;
#273 = FACE_OUTER_BOUND ( 'NONE', #217, .T. ) ;
#274 = DIRECTION ( 'NONE',  ( 4.275831445896958607E-31, 1.000000000000000000, 1.224646799147353207E-16 ) ) ;
#275 = CARTESIAN_POINT ( 'NONE',  ( 1.745740669421566678E-13, 8.998558695971067645E-33, 50.00000000000000000 ) ) ;
#276 = AXIS2_PLACEMENT_3D ( 'NONE', #297, #49, #179 ) ;
#277 = ADVANCED_FACE ( 'NONE', ( #180, #273 ), #19, .F. ) ;
#278 = FACE_BOUND ( 'NONE', #241, .T. ) ;
#279 = AXIS2_PLACEMENT_3D ( 'NONE', #107, #45, #106 ) ;
#280 = PLANE ( 'NONE',  #30 ) ;
#281 = ADVANCED_BREP_SHAPE_REPRESENTATION ( '200109', ( #89, #185, #257 ), #207 ) ;
#282 = AXIS2_PLACEMENT_3D ( 'NONE', #259, #50, #139 ) ;
#283 = PERSON_AND_ORGANIZATION ( #9, #190 ) ;
#284 = APPROVAL_ROLE ( '' ) ;
#285 = ORIENTED_EDGE ( 'NONE', *, *, #61, .F. ) ;
#286 = PERSON_AND_ORGANIZATION ( #9, #190 ) ;
#287 = CARTESIAN_POINT ( 'NONE',  ( 8.728703347107827472E-16, -3.061616997868381169E-17, 0.2499999999999998335 ) ) ;
#288 = CARTESIAN_POINT ( 'NONE',  ( 8.728703347107827472E-16, -3.061616997868381169E-17, 0.2499999999999998335 ) ) ;
#289 = CYLINDRICAL_SURFACE ( 'NONE', #162, 0.8549999999999989830 ) ;
#290 = ORIENTED_EDGE ( 'NONE', *, *, #27, .T. ) ;
#291 = CARTESIAN_POINT ( 'NONE',  ( 7.622935181443155130E-14, 1.499999999999994005, 21.83295410070539688 ) ) ;
#292 = DIRECTION ( 'NONE',  ( -4.275831445896958607E-31, -1.000000000000000000, -1.224646799147353207E-16 ) ) ;
#293 = PERSON_AND_ORGANIZATION ( #9, #190 ) ;
#294 = DIRECTION ( 'NONE',  ( 3.491481338843133355E-15, -1.224646799147353207E-16, 1.000000000000000000 ) ) ;
#295 = ORIENTED_EDGE ( 'NONE', *, *, #160, .F. ) ;
#296 = LOCAL_TIME ( 7, 44, 50.00000000000000000, #79 ) ;
#297 = CARTESIAN_POINT ( 'NONE',  ( 1.745740669421566678E-13, -6.123233995736766085E-15, 50.00000000000000000 ) ) ;
#298 = PLANE ( 'NONE',  #195 ) ;
#299 = CC_DESIGN_PERSON_AND_ORGANIZATION_ASSIGNMENT ( #125, #36, ( #229 ) ) ;
#300 = AXIS2_PLACEMENT_3D ( 'NONE', #236, #123, #8 ) ;
#301 = AXIS2_PLACEMENT_3D ( 'NONE', #62, #183, #198 ) ;
#302 = DIRECTION ( 'NONE',  ( -3.491481338843133355E-15, 1.224646799147353207E-16, -1.000000000000000000 ) ) ;
#303 = DIRECTION ( 'NONE',  ( 3.491481338843133355E-15, -1.224646799147353207E-16, 1.000000000000000000 ) ) ;
ENDSEC;
END-ISO-10303-21;
