ISO-10303-21;
HEADER;
FILE_DESCRIPTION (( 'STEP AP203' ),
    '1' );
FILE_NAME ('200108.step',
    '2021-11-30T08:32:31',
    ( '' ),
    ( '' ),
    'SwSTEP 2.0',
    'SolidWorks 2019',
    '' );
FILE_SCHEMA (( 'CONFIG_CONTROL_DESIGN' ));
ENDSEC;

DATA;
#1 = ADVANCED_BREP_SHAPE_REPRESENTATION ( '200108', ( #110, #217, #182 ), #280 ) ;
#2 = CARTESIAN_POINT ( 'NONE',  ( -1.892735826383161794E-31, 0.8541624327025945096, -5.421010862427522170E-17 ) ) ;
#3 = DIRECTION ( 'NONE',  ( -3.491481338843133355E-15, 1.224646799147353207E-16, -1.000000000000000000 ) ) ;
#4 = DIRECTION ( 'NONE',  ( 1.000000000000000000, 0.0000000000000000000, 0.0000000000000000000 ) ) ;
#5 = AXIS2_PLACEMENT_3D ( 'NONE', #202, #266, #19 ) ;
#6 = DATE_AND_TIME ( #210, #281 ) ;
#7 = PRODUCT_DEFINITION_SHAPE ( 'NONE', 'NONE',  #65 ) ;
#8 = SECURITY_CLASSIFICATION_LEVEL ( 'unclassified' ) ;
#9 = MECHANICAL_CONTEXT ( 'NONE', #196, 'mechanical' ) ;
#10 = PERSON_AND_ORGANIZATION_ROLE ( 'creator' ) ;
#11 = AXIS2_PLACEMENT_3D ( 'NONE', #116, #216, #98 ) ;
#12 = ORIENTED_EDGE ( 'NONE', *, *, #186, .T. ) ;
#13 = ORGANIZATION ( 'UNSPECIFIED', 'UNSPECIFIED', '' ) ;
#14 = CARTESIAN_POINT ( 'NONE',  ( 1.745740669421566678E-13, -6.123233995736766085E-15, 50.00000000000000000 ) ) ;
#15 = ORIENTED_EDGE ( 'NONE', *, *, #176, .T. ) ;
#16 = DIRECTION ( 'NONE',  ( 3.491481338843133355E-15, -1.224646799147353207E-16, 1.000000000000000000 ) ) ;
#17 = ORIENTED_EDGE ( 'NONE', *, *, #278, .F. ) ;
#18 = DIRECTION ( 'NONE',  ( 3.857646358311943542E-31, 1.000000000000000000, 1.085830918863801239E-16 ) ) ;
#19 = DIRECTION ( 'NONE',  ( -4.275831445896958607E-31, -1.000000000000000000, -1.224646799147353207E-16 ) ) ;
#20 = ADVANCED_FACE ( 'NONE', ( #133 ), #258, .T. ) ;
#21 = DIRECTION ( 'NONE',  ( -3.491481338843133355E-15, 1.224646799147353207E-16, -1.000000000000000000 ) ) ;
#22 = ADVANCED_FACE ( 'NONE', ( #276, #138 ), #75, .T. ) ;
#23 = LOCAL_TIME ( 9, 32, 31.00000000000000000, #226 ) ;
#24 = CARTESIAN_POINT ( 'NONE',  ( -5.544990416036760861E-31, 1.944920824509456792E-32, -1.588148375403901248E-16 ) ) ;
#25 = VERTEX_POINT ( 'NONE', #207 ) ;
#26 = VERTEX_POINT ( 'NONE', #277 ) ;
#27 = AXIS2_PLACEMENT_3D ( 'NONE', #100, #142, #86 ) ;
#28 = CARTESIAN_POINT ( 'NONE',  ( 0.0000000000000000000, 0.0000000000000000000, 0.0000000000000000000 ) ) ;
#29 = PERSON_AND_ORGANIZATION_ROLE ( 'classification_officer' ) ;
#30 = LOCAL_TIME ( 9, 32, 31.00000000000000000, #289 ) ;
#31 = ADVANCED_FACE ( 'NONE', ( #155, #51 ), #178, .F. ) ;
#32 = EDGE_LOOP ( 'NONE', ( #17 ) ) ;
#33 = CC_DESIGN_DATE_AND_TIME_ASSIGNMENT ( #6, #183, ( #284 ) ) ;
#34 = FACE_OUTER_BOUND ( 'NONE', #288, .T. ) ;
#35 = EDGE_LOOP ( 'NONE', ( #139 ) ) ;
#36 = CARTESIAN_POINT ( 'NONE',  ( 0.0000000000000000000, 0.0000000000000000000, 0.0000000000000000000 ) ) ;
#37 = FACE_OUTER_BOUND ( 'NONE', #73, .T. ) ;
#38 = ORIENTED_EDGE ( 'NONE', *, *, #186, .F. ) ;
#39 = CARTESIAN_POINT ( 'NONE',  ( 6.405924284287275164E-14, -2.246895775456749140E-15, 18.34729635533384595 ) ) ;
#40 = FACE_OUTER_BOUND ( 'NONE', #200, .T. ) ;
#41 = AXIS2_PLACEMENT_3D ( 'NONE', #181, #56, #253 ) ;
#42 = EDGE_CURVE ( 'NONE', #25, #25, #219, .T. ) ;
#43 = CARTESIAN_POINT ( 'NONE',  ( 1.745740669421566678E-13, 8.998558695971067645E-33, 50.00000000000000000 ) ) ;
#44 = DIRECTION ( 'NONE',  ( 0.0000000000000000000, 1.000000000000000000, 0.0000000000000000000 ) ) ;
#45 = AXIS2_PLACEMENT_3D ( 'NONE', #119, #16, #102 ) ;
#46 = SHAPE_DEFINITION_REPRESENTATION ( #7, #1 ) ;
#47 = CC_DESIGN_SECURITY_CLASSIFICATION ( #284, ( #271 ) ) ;
#48 = PERSON ( 'UNSPECIFIED', 'UNSPECIFIED', 'UNSPECIFIED', ('UNSPECIFIED'), ('UNSPECIFIED'), ('UNSPECIFIED') ) ;
#49 = CARTESIAN_POINT ( 'NONE',  ( 6.405924284287275164E-14, 0.8753844939755790477, 18.34729635533384595 ) ) ;
#50 = CIRCLE ( 'NONE', #27, 1.500000000000001554 ) ;
#51 = FACE_OUTER_BOUND ( 'NONE', #194, .T. ) ;
#52 = CC_DESIGN_PERSON_AND_ORGANIZATION_ASSIGNMENT ( #255, #256, ( #158 ) ) ;
#53 = AXIS2_PLACEMENT_3D ( 'NONE', #84, #66, #167 ) ;
#54 = CC_DESIGN_APPROVAL ( #112, ( #271 ) ) ;
#55 = EDGE_LOOP ( 'NONE', ( #259 ) ) ;
#56 = DIRECTION ( 'NONE',  ( 3.491481338843133355E-15, -1.224646799147353207E-16, 1.000000000000000000 ) ) ;
#57 = ORIENTED_EDGE ( 'NONE', *, *, #76, .F. ) ;
#58 = DIRECTION ( 'NONE',  ( -3.491481338843133355E-15, 1.224646799147353207E-16, -1.000000000000000000 ) ) ;
#59 = ORIENTED_EDGE ( 'NONE', *, *, #95, .F. ) ;
#60 = DIRECTION ( 'NONE',  ( 4.275831445896958607E-31, 1.000000000000000000, 1.224646799147353207E-16 ) ) ;
#61 = PERSON_AND_ORGANIZATION_ROLE ( 'design_supplier' ) ;
#62 = ORIENTED_EDGE ( 'NONE', *, *, #214, .T. ) ;
#63 = DIRECTION ( 'NONE',  ( -3.491481338843133355E-15, 1.224646799147353207E-16, -1.000000000000000000 ) ) ;
#64 = PERSON_AND_ORGANIZATION_ROLE ( 'creator' ) ;
#65 = PRODUCT_DEFINITION ( 'UNKNOWN', '', #271, #114 ) ;
#66 = DIRECTION ( 'NONE',  ( 3.491481338843133355E-15, -1.224646799147353207E-16, 1.000000000000000000 ) ) ;
#67 = DATE_AND_TIME ( #267, #30 ) ;
#68 = FACE_OUTER_BOUND ( 'NONE', #123, .T. ) ;
#69 = AXIS2_PLACEMENT_3D ( 'NONE', #206, #208, #44 ) ;
#70 = CC_DESIGN_APPROVAL ( #293, ( #65 ) ) ;
#71 = DIRECTION ( 'NONE',  ( -3.491481338843133355E-15, 1.224646799147353207E-16, -1.000000000000000000 ) ) ;
#72 = DIRECTION ( 'NONE',  ( 0.0000000000000000000, 1.000000000000000000, 0.0000000000000000000 ) ) ;
#73 = EDGE_LOOP ( 'NONE', ( #153 ) ) ;
#74 = CONICAL_SURFACE ( 'NONE', #232, 0.9985000000000000542, 0.5235987755982999259 ) ;
#75 = CYLINDRICAL_SURFACE ( 'NONE', #134, 0.8449999999999998623 ) ;
#76 = EDGE_CURVE ( 'NONE', #94, #94, #247, .T. ) ;
#77 = PERSON_AND_ORGANIZATION ( #48, #13 ) ;
#78 = CIRCLE ( 'NONE', #241, 0.9984999999999989440 ) ;
#79 = EDGE_LOOP ( 'NONE', ( #57 ) ) ;
#80 =( NAMED_UNIT ( * ) SI_UNIT ( $, .STERADIAN. ) SOLID_ANGLE_UNIT ( ) );
#81 = AXIS2_PLACEMENT_3D ( 'NONE', #24, #107, #301 ) ;
#82 = DIRECTION ( 'NONE',  ( 0.0000000000000000000, 1.000000000000000000, 0.0000000000000000000 ) ) ;
#83 = ORIENTED_EDGE ( 'NONE', *, *, #262, .T. ) ;
#84 = CARTESIAN_POINT ( 'NONE',  ( 7.642736356083669471E-14, -2.680711052663451523E-15, 21.88966691890157179 ) ) ;
#85 = AXIS2_PLACEMENT_3D ( 'NONE', #263, #145, #72 ) ;
#86 = DIRECTION ( 'NONE',  ( 0.0000000000000000000, 1.000000000000000000, 0.0000000000000000000 ) ) ;
#87 = ADVANCED_FACE ( 'NONE', ( #37, #68 ), #165, .T. ) ;
#88 = DIRECTION ( 'NONE',  ( 4.275831445896957731E-31, 1.000000000000000000, 1.224646799147353207E-16 ) ) ;
#89 = DIRECTION ( 'NONE',  ( -3.491481338843133355E-15, 1.224646799147353207E-16, -1.000000000000000000 ) ) ;
#90 = CC_DESIGN_DATE_AND_TIME_ASSIGNMENT ( #299, #249, ( #65 ) ) ;
#91 = AXIS2_PLACEMENT_3D ( 'NONE', #242, #121, #221 ) ;
#92 = CARTESIAN_POINT ( 'NONE',  ( 2.793185071074506684E-14, -9.797174393178825657E-16, 8.000000000000000000 ) ) ;
#93 = AXIS2_PLACEMENT_3D ( 'NONE', #191, #58, #140 ) ;
#94 = VERTEX_POINT ( 'NONE', #2 ) ;
#95 = EDGE_CURVE ( 'NONE', #273, #273, #173, .T. ) ;
#96 = VERTEX_POINT ( 'NONE', #154 ) ;
#97 = PERSON_AND_ORGANIZATION ( #48, #13 ) ;
#98 = DIRECTION ( 'NONE',  ( 4.275831445896958607E-31, 1.000000000000000000, 1.224646799147353207E-16 ) ) ;
#99 = ADVANCED_FACE ( 'NONE', ( #198, #204 ), #149, .T. ) ;
#100 = CARTESIAN_POINT ( 'NONE',  ( 1.735266225405037467E-13, -6.086494591762345225E-15, 49.70000000000000284 ) ) ;
#101 = EDGE_LOOP ( 'NONE', ( #163 ) ) ;
#102 = DIRECTION ( 'NONE',  ( -4.275831445896958607E-31, -1.000000000000000000, -1.224646799147353207E-16 ) ) ;
#103 = PLANE ( 'NONE',  #45 ) ;
#104 = DIRECTION ( 'NONE',  ( -3.491481338843133355E-15, 1.224646799147353207E-16, -1.000000000000000000 ) ) ;
#105 = FACE_OUTER_BOUND ( 'NONE', #32, .T. ) ;
#106 = VERTEX_POINT ( 'NONE', #180 ) ;
#107 = DIRECTION ( 'NONE',  ( -3.491481338843133355E-15, 1.224646799147353207E-16, -1.000000000000000000 ) ) ;
#108 = APPLICATION_CONTEXT ( 'configuration controlled 3d designs of mechanical parts and assemblies' ) ;
#109 = AXIS2_PLACEMENT_3D ( 'NONE', #92, #251, #179 ) ;
#110 = MANIFOLD_SOLID_BREP ( 'Corps-Déplacer/Copier1[1]', #269 ) ;
#111 = COORDINATED_UNIVERSAL_TIME_OFFSET ( 1, 0, .AHEAD. ) ;
#112 = APPROVAL ( #157, 'UNSPECIFIED' ) ;
#113 = ORIENTED_EDGE ( 'NONE', *, *, #42, .F. ) ;
#114 = DESIGN_CONTEXT ( 'detailed design', #108, 'design' ) ;
#115 = ADVANCED_FACE ( 'NONE', ( #260, #40 ), #151, .T. ) ;
#116 = CARTESIAN_POINT ( 'NONE',  ( 6.284666409917640040E-14, -2.168404344971008868E-15, 18.00000000000000000 ) ) ;
#117 = DATE_AND_TIME ( #237, #212 ) ;
#118 = ORIENTED_EDGE ( 'NONE', *, *, #76, .T. ) ;
#119 = CARTESIAN_POINT ( 'NONE',  ( -2.772495208018380430E-31, 9.724604122547283960E-33, -7.940741877019506240E-17 ) ) ;
#120 = CONICAL_SURFACE ( 'NONE', #53, 1.499999999999996669, 0.1745329251994259534 ) ;
#121 = DIRECTION ( 'NONE',  ( -3.491481338843133355E-15, 1.224646799147353207E-16, -1.000000000000000000 ) ) ;
#122 = CARTESIAN_POINT ( 'NONE',  ( 2.886013015238223984E-14, -1.012277099146737164E-15, 8.265869798961823278 ) ) ;
#123 = EDGE_LOOP ( 'NONE', ( #12 ) ) ;
#124 = DIRECTION ( 'NONE',  ( 0.0000000000000000000, 1.000000000000000000, 0.0000000000000000000 ) ) ;
#125 = APPROVAL_ROLE ( '' ) ;
#126 = AXIS2_PLACEMENT_3D ( 'NONE', #14, #71, #245 ) ;
#127 = APPROVAL_PERSON_ORGANIZATION ( #132, #201, #125 ) ;
#128 = FACE_BOUND ( 'NONE', #101, .T. ) ;
#129 = APPROVAL_DATE_TIME ( #295, #201 ) ;
#130 = VERTEX_POINT ( 'NONE', #272 ) ;
#131 =( NAMED_UNIT ( * ) PLANE_ANGLE_UNIT ( ) SI_UNIT ( $, .RADIAN. ) );
#132 = PERSON_AND_ORGANIZATION ( #48, #13 ) ;
#133 = FACE_OUTER_BOUND ( 'NONE', #224, .T. ) ;
#134 = AXIS2_PLACEMENT_3D ( 'NONE', #28, #3, #236 ) ;
#135 = LOCAL_TIME ( 9, 32, 31.00000000000000000, #297 ) ;
#136 = ADVANCED_FACE ( 'NONE', ( #285 ), #229, .F. ) ;
#137 = APPLICATION_PROTOCOL_DEFINITION ( 'international standard', 'config_control_design', 1994, #196 ) ;
#138 = FACE_OUTER_BOUND ( 'NONE', #234, .T. ) ;
#139 = ORIENTED_EDGE ( 'NONE', *, *, #203, .T. ) ;
#140 = DIRECTION ( 'NONE',  ( 0.0000000000000000000, 1.000000000000000000, 0.0000000000000000000 ) ) ;
#141 = APPROVAL_STATUS ( 'not_yet_approved' ) ;
#142 = DIRECTION ( 'NONE',  ( -3.491481338843133355E-15, 1.224646799147353207E-16, -1.000000000000000000 ) ) ;
#143 = APPROVAL_PERSON_ORGANIZATION ( #252, #293, #195 ) ;
#144 = ADVANCED_FACE ( 'NONE', ( #128, #105 ), #74, .T. ) ;
#145 = DIRECTION ( 'NONE',  ( -3.491481338843133355E-15, 1.224646799147353207E-16, -1.000000000000000000 ) ) ;
#146 = DIRECTION ( 'NONE',  ( -3.491481338843133355E-15, 1.224646799147353207E-16, -1.000000000000000000 ) ) ;
#147 = CC_DESIGN_PERSON_AND_ORGANIZATION_ASSIGNMENT ( #265, #64, ( #65 ) ) ;
#148 = APPROVAL_DATE_TIME ( #67, #293 ) ;
#149 = CYLINDRICAL_SURFACE ( 'NONE', #298, 0.9984999999999993880 ) ;
#150 = CALENDAR_DATE ( 2021, 30, 11 ) ;
#151 = CONICAL_SURFACE ( 'NONE', #291, 0.9984999999999989440, 0.5235987755982925984 ) ;
#152 = CARTESIAN_POINT ( 'NONE',  ( 1.745740669421566678E-13, 1.199999999999995515, 50.00000000000000000 ) ) ;
#153 = ORIENTED_EDGE ( 'NONE', *, *, #290, .F. ) ;
#154 = CARTESIAN_POINT ( 'NONE',  ( 8.728703347107833388E-16, 0.9984999999999989440, 0.2500000000000000000 ) ) ;
#155 = FACE_OUTER_BOUND ( 'NONE', #286, .T. ) ;
#156 = EDGE_LOOP ( 'NONE', ( #187 ) ) ;
#157 = APPROVAL_STATUS ( 'not_yet_approved' ) ;
#158 = PRODUCT ( '200108', '200108', '', ( #9 ) ) ;
#159 = ADVANCED_FACE ( 'NONE', ( #172 ), #223, .F. ) ;
#160 = CLOSED_SHELL ( 'NONE', ( #228, #115, #99, #20 ) ) ;
#161 = AXIS2_PLACEMENT_3D ( 'NONE', #39, #63, #239 ) ;
#162 = ADVANCED_FACE ( 'NONE', ( #268, #270 ), #282, .T. ) ;
#163 = ORIENTED_EDGE ( 'NONE', *, *, #95, .T. ) ;
#164 = CC_DESIGN_PERSON_AND_ORGANIZATION_ASSIGNMENT ( #261, #10, ( #271 ) ) ;
#165 = CYLINDRICAL_SURFACE ( 'NONE', #231, 1.499999999999999112 ) ;
#166 = EDGE_LOOP ( 'NONE', ( #83 ) ) ;
#167 = DIRECTION ( 'NONE',  ( 0.0000000000000000000, -1.000000000000000000, 0.0000000000000000000 ) ) ;
#168 = AXIS2_PLACEMENT_3D ( 'NONE', #122, #244, #124 ) ;
#169 = DIRECTION ( 'NONE',  ( 3.491481338843133355E-15, -1.224646799147353207E-16, 1.000000000000000000 ) ) ;
#170 = CARTESIAN_POINT ( 'NONE',  ( 0.0000000000000000000, 0.0000000000000000000, 0.0000000000000000000 ) ) ;
#171 = APPROVAL_ROLE ( '' ) ;
#172 = FACE_OUTER_BOUND ( 'NONE', #283, .T. ) ;
#173 = CIRCLE ( 'NONE', #168, 0.8449999999999999734 ) ;
#174 = CC_DESIGN_APPROVAL ( #201, ( #284 ) ) ;
#175 = CALENDAR_DATE ( 2021, 30, 11 ) ;
#176 = EDGE_CURVE ( 'NONE', #96, #96, #78, .T. ) ;
#177 = VERTEX_POINT ( 'NONE', #152 ) ;
#178 = TOROIDAL_SURFACE ( 'NONE', #11, 2.844999999999999751, 2.000000000000000000 ) ;
#179 = DIRECTION ( 'NONE',  ( 0.0000000000000000000, 1.000000000000000000, 0.0000000000000000000 ) ) ;
#180 = CARTESIAN_POINT ( 'NONE',  ( 6.284666409917640040E-14, 0.8449999999999976419, 18.00000000000000000 ) ) ;
#181 = CARTESIAN_POINT ( 'NONE',  ( 2.793185071074506684E-14, 7.487550714939308425E-33, 8.000000000000000000 ) ) ;
#182 = AXIS2_PLACEMENT_3D ( 'NONE', #36, #209, #4 ) ;
#183 = DATE_TIME_ROLE ( 'classification_date' ) ;
#184 = CC_DESIGN_PERSON_AND_ORGANIZATION_ASSIGNMENT ( #213, #61, ( #271 ) ) ;
#185 = EDGE_LOOP ( 'NONE', ( #38 ) ) ;
#186 = EDGE_CURVE ( 'NONE', #26, #26, #50, .T. ) ;
#187 = ORIENTED_EDGE ( 'NONE', *, *, #42, .T. ) ;
#188 = UNCERTAINTY_MEASURE_WITH_UNIT (LENGTH_MEASURE( 1.000000000000000082E-05 ), #250, 'distance_accuracy_value', 'NONE');
#189 = CIRCLE ( 'NONE', #69, 1.499999999999996669 ) ;
#190 = CC_DESIGN_PERSON_AND_ORGANIZATION_ASSIGNMENT ( #97, #29, ( #284 ) ) ;
#191 = CARTESIAN_POINT ( 'NONE',  ( 2.793185071074506684E-14, -9.797174393178825657E-16, 8.000000000000000000 ) ) ;
#192 = EDGE_LOOP ( 'NONE', ( #238 ) ) ;
#193 = CARTESIAN_POINT ( 'NONE',  ( 0.0000000000000000000, 0.0000000000000000000, 0.0000000000000000000 ) ) ;
#194 = EDGE_LOOP ( 'NONE', ( #62 ) ) ;
#195 = APPROVAL_ROLE ( '' ) ;
#196 = APPLICATION_CONTEXT ( 'configuration controlled 3d designs of mechanical parts and assemblies' ) ;
#197 = FACE_BOUND ( 'NONE', #215, .T. ) ;
#198 = FACE_OUTER_BOUND ( 'NONE', #218, .T. ) ;
#199 = APPROVAL_PERSON_ORGANIZATION ( #77, #112, #171 ) ;
#200 = EDGE_LOOP ( 'NONE', ( #15 ) ) ;
#201 = APPROVAL ( #300, 'UNSPECIFIED' ) ;
#202 = CARTESIAN_POINT ( 'NONE',  ( 2.793185071074506684E-14, 7.487550714939308425E-33, 8.000000000000000000 ) ) ;
#203 = EDGE_CURVE ( 'NONE', #177, #177, #275, .T. ) ;
#204 = FACE_OUTER_BOUND ( 'NONE', #156, .T. ) ;
#205 = AXIS2_PLACEMENT_3D ( 'NONE', #43, #21, #60 ) ;
#206 = CARTESIAN_POINT ( 'NONE',  ( 7.642736356083669471E-14, -2.680711052663451523E-15, 21.88966691890157179 ) ) ;
#207 = CARTESIAN_POINT ( 'NONE',  ( 2.793185071074506684E-14, 0.9984999999999989440, 8.000000000000000000 ) ) ;
#208 = DIRECTION ( 'NONE',  ( -3.491481338843133355E-15, 1.224646799147353207E-16, -1.000000000000000000 ) ) ;
#209 = DIRECTION ( 'NONE',  ( 0.0000000000000000000, 0.0000000000000000000, 1.000000000000000000 ) ) ;
#210 = CALENDAR_DATE ( 2021, 30, 11 ) ;
#211 = CIRCLE ( 'NONE', #85, 0.8449999999999998623 ) ;
#212 = LOCAL_TIME ( 9, 32, 31.00000000000000000, #235 ) ;
#213 = PERSON_AND_ORGANIZATION ( #48, #13 ) ;
#214 = EDGE_CURVE ( 'NONE', #302, #302, #254, .T. ) ;
#215 = EDGE_LOOP ( 'NONE', ( #257 ) ) ;
#216 = DIRECTION ( 'NONE',  ( -3.491481338843133355E-15, 1.224646799147353207E-16, -1.000000000000000000 ) ) ;
#217 = MANIFOLD_SOLID_BREP ( 'Corps-Déplacer/Copier1[2]', #160 ) ;
#218 = EDGE_LOOP ( 'NONE', ( #264 ) ) ;
#219 = CIRCLE ( 'NONE', #93, 0.9985000000000000542 ) ;
#220 = DIRECTION ( 'NONE',  ( -3.491481338843133355E-15, 1.224646799147353207E-16, -1.000000000000000000 ) ) ;
#221 = DIRECTION ( 'NONE',  ( 0.0000000000000000000, 1.000000000000000000, 0.0000000000000000000 ) ) ;
#222 = ORIENTED_EDGE ( 'NONE', *, *, #262, .F. ) ;
#223 = PLANE ( 'NONE',  #5 ) ;
#224 = EDGE_LOOP ( 'NONE', ( #113 ) ) ;
#225 = CARTESIAN_POINT ( 'NONE',  ( 8.728703347107829444E-16, -3.061616997868381785E-17, 0.2499999999999998890 ) ) ;
#226 = COORDINATED_UNIVERSAL_TIME_OFFSET ( 1, 0, .AHEAD. ) ;
#227 = CIRCLE ( 'NONE', #109, 0.9985000000000000542 ) ;
#228 = ADVANCED_FACE ( 'NONE', ( #34 ), #103, .F. ) ;
#229 = PLANE ( 'NONE',  #205 ) ;
#230 = CARTESIAN_POINT ( 'NONE',  ( 2.886013015238223984E-14, 0.8449999999999989742, 8.265869798961823278 ) ) ;
#231 = AXIS2_PLACEMENT_3D ( 'NONE', #193, #220, #294 ) ;
#232 = AXIS2_PLACEMENT_3D ( 'NONE', #296, #89, #82 ) ;
#233 = PRODUCT_RELATED_PRODUCT_CATEGORY ( 'detail', '', ( #158 ) ) ;
#234 = EDGE_LOOP ( 'NONE', ( #59 ) ) ;
#235 = COORDINATED_UNIVERSAL_TIME_OFFSET ( 1, 0, .AHEAD. ) ;
#236 = DIRECTION ( 'NONE',  ( 4.275831445896958607E-31, 1.000000000000000000, 1.224646799147353207E-16 ) ) ;
#237 = CALENDAR_DATE ( 2021, 30, 11 ) ;
#238 = ORIENTED_EDGE ( 'NONE', *, *, #290, .T. ) ;
#239 = DIRECTION ( 'NONE',  ( 0.0000000000000000000, 1.000000000000000000, 0.0000000000000000000 ) ) ;
#240 = APPROVAL_DATE_TIME ( #117, #112 ) ;
#241 = AXIS2_PLACEMENT_3D ( 'NONE', #225, #104, #18 ) ;
#242 = CARTESIAN_POINT ( 'NONE',  ( 1.745740669421566678E-13, -6.123233995736766085E-15, 50.00000000000000000 ) ) ;
#243 = ORIENTED_EDGE ( 'NONE', *, *, #278, .T. ) ;
#244 = DIRECTION ( 'NONE',  ( -3.491481338843133355E-15, 1.224646799147353207E-16, -1.000000000000000000 ) ) ;
#245 = DIRECTION ( 'NONE',  ( 0.0000000000000000000, 1.000000000000000000, 0.0000000000000000000 ) ) ;
#246 = ADVANCED_FACE ( 'NONE', ( #197, #287 ), #120, .T. ) ;
#247 = CIRCLE ( 'NONE', #81, 0.8541624327025945096 ) ;
#248 = CARTESIAN_POINT ( 'NONE',  ( 8.728703347107829444E-16, -3.061616997868381785E-17, 0.2499999999999998890 ) ) ;
#249 = DATE_TIME_ROLE ( 'creation_date' ) ;
#250 =( LENGTH_UNIT ( ) NAMED_UNIT ( * ) SI_UNIT ( .MILLI., .METRE. ) );
#251 = DIRECTION ( 'NONE',  ( -3.491481338843133355E-15, 1.224646799147353207E-16, -1.000000000000000000 ) ) ;
#252 = PERSON_AND_ORGANIZATION ( #48, #13 ) ;
#253 = DIRECTION ( 'NONE',  ( -4.275831445896958607E-31, -1.000000000000000000, -1.224646799147353207E-16 ) ) ;
#254 = CIRCLE ( 'NONE', #161, 0.8753844939755813792 ) ;
#255 = PERSON_AND_ORGANIZATION ( #48, #13 ) ;
#256 = PERSON_AND_ORGANIZATION_ROLE ( 'design_owner' ) ;
#257 = ORIENTED_EDGE ( 'NONE', *, *, #214, .F. ) ;
#258 = PLANE ( 'NONE',  #41 ) ;
#259 = ORIENTED_EDGE ( 'NONE', *, *, #203, .F. ) ;
#260 = FACE_BOUND ( 'NONE', #79, .T. ) ;
#261 = PERSON_AND_ORGANIZATION ( #48, #13 ) ;
#262 = EDGE_CURVE ( 'NONE', #106, #106, #211, .T. ) ;
#263 = CARTESIAN_POINT ( 'NONE',  ( 6.284666409917640040E-14, -2.204364238465235428E-15, 18.00000000000000000 ) ) ;
#264 = ORIENTED_EDGE ( 'NONE', *, *, #176, .F. ) ;
#265 = PERSON_AND_ORGANIZATION ( #48, #13 ) ;
#266 = DIRECTION ( 'NONE',  ( 3.491481338843133355E-15, -1.224646799147353207E-16, 1.000000000000000000 ) ) ;
#267 = CALENDAR_DATE ( 2021, 30, 11 ) ;
#268 = FACE_OUTER_BOUND ( 'NONE', #185, .T. ) ;
#269 = CLOSED_SHELL ( 'NONE', ( #159, #144, #22, #31, #246, #87, #162, #136 ) ) ;
#270 = FACE_BOUND ( 'NONE', #35, .T. ) ;
#271 = PRODUCT_DEFINITION_FORMATION_WITH_SPECIFIED_SOURCE ( 'ANY', '', #158, .NOT_KNOWN. ) ;
#272 = CARTESIAN_POINT ( 'NONE',  ( 7.642736356083669471E-14, 1.499999999999994005, 21.88966691890157179 ) ) ;
#273 = VERTEX_POINT ( 'NONE', #230 ) ;
#274 = CARTESIAN_POINT ( 'NONE',  ( 2.793185071074506684E-14, 0.9984999999999989440, 8.000000000000000000 ) ) ;
#275 = CIRCLE ( 'NONE', #91, 1.200000000000001732 ) ;
#276 = FACE_OUTER_BOUND ( 'NONE', #166, .T. ) ;
#277 = CARTESIAN_POINT ( 'NONE',  ( 1.735266225405037467E-13, 1.499999999999995559, 49.70000000000000284 ) ) ;
#278 = EDGE_CURVE ( 'NONE', #279, #279, #227, .T. ) ;
#279 = VERTEX_POINT ( 'NONE', #274 ) ;
#280 =( GEOMETRIC_REPRESENTATION_CONTEXT ( 3 ) GLOBAL_UNCERTAINTY_ASSIGNED_CONTEXT ( ( #188 ) ) GLOBAL_UNIT_ASSIGNED_CONTEXT ( ( #250, #131, #80 ) ) REPRESENTATION_CONTEXT ( 'NONE', 'WORKASPACE' ) );
#281 = LOCAL_TIME ( 9, 32, 31.00000000000000000, #111 ) ;
#282 = CONICAL_SURFACE ( 'NONE', #126, 1.200000000000001732, 0.7853981633974453924 ) ;
#283 = EDGE_LOOP ( 'NONE', ( #243 ) ) ;
#284 = SECURITY_CLASSIFICATION ( '', '', #8 ) ;
#285 = FACE_OUTER_BOUND ( 'NONE', #55, .T. ) ;
#286 = EDGE_LOOP ( 'NONE', ( #222 ) ) ;
#287 = FACE_OUTER_BOUND ( 'NONE', #192, .T. ) ;
#288 = EDGE_LOOP ( 'NONE', ( #118 ) ) ;
#289 = COORDINATED_UNIVERSAL_TIME_OFFSET ( 1, 0, .AHEAD. ) ;
#290 = EDGE_CURVE ( 'NONE', #130, #130, #189, .T. ) ;
#291 = AXIS2_PLACEMENT_3D ( 'NONE', #248, #169, #292 ) ;
#292 = DIRECTION ( 'NONE',  ( -3.857646358311943542E-31, -1.000000000000000000, -1.085830918863801239E-16 ) ) ;
#293 = APPROVAL ( #141, 'UNSPECIFIED' ) ;
#294 = DIRECTION ( 'NONE',  ( 4.275831445896958607E-31, 1.000000000000000000, 1.224646799147353454E-16 ) ) ;
#295 = DATE_AND_TIME ( #150, #23 ) ;
#296 = CARTESIAN_POINT ( 'NONE',  ( 2.793185071074506684E-14, -9.797174393178825657E-16, 8.000000000000000000 ) ) ;
#297 = COORDINATED_UNIVERSAL_TIME_OFFSET ( 1, 0, .AHEAD. ) ;
#298 = AXIS2_PLACEMENT_3D ( 'NONE', #170, #146, #88 ) ;
#299 = DATE_AND_TIME ( #175, #135 ) ;
#300 = APPROVAL_STATUS ( 'not_yet_approved' ) ;
#301 = DIRECTION ( 'NONE',  ( 4.275831445896959482E-31, 1.000000000000000000, 1.224646799147353454E-16 ) ) ;
#302 = VERTEX_POINT ( 'NONE', #49 ) ;
#303 = APPLICATION_PROTOCOL_DEFINITION ( 'international standard', 'config_control_design', 1994, #108 ) ;
ENDSEC;
END-ISO-10303-21;
