ISO-10303-21;
HEADER;
FILE_DESCRIPTION (( 'STEP AP203' ),
    '1' );
FILE_NAME ('200107.step',
    '2021-11-30T08:32:31',
    ( '' ),
    ( '' ),
    'SwSTEP 2.0',
    'SolidWorks 2019',
    '' );
FILE_SCHEMA (( 'CONFIG_CONTROL_DESIGN' ));
ENDSEC;

DATA;
#1 = CARTESIAN_POINT ( 'NONE',  ( 2.793185071074506684E-14, -9.797174393178825657E-16, 8.000000000000000000 ) ) ;
#2 = ADVANCED_FACE ( 'NONE', ( #86 ), #109, .T. ) ;
#3 = CALENDAR_DATE ( 2021, 30, 11 ) ;
#4 = DIRECTION ( 'NONE',  ( 0.0000000000000000000, 1.000000000000000000, 0.0000000000000000000 ) ) ;
#5 = APPROVAL ( #253, 'UNSPECIFIED' ) ;
#6 = EDGE_LOOP ( 'NONE', ( #113 ) ) ;
#7 = AXIS2_PLACEMENT_3D ( 'NONE', #285, #84, #38 ) ;
#8 = CIRCLE ( 'NONE', #93, 0.8400000000000005240 ) ;
#9 = PERSON_AND_ORGANIZATION ( #165, #186 ) ;
#10 = EDGE_LOOP ( 'NONE', ( #54 ) ) ;
#11 = EDGE_CURVE ( 'NONE', #219, #219, #70, .T. ) ;
#12 = ORIENTED_EDGE ( 'NONE', *, *, #118, .T. ) ;
#13 = DIRECTION ( 'NONE',  ( -3.491481338843133355E-15, 1.224646799147353207E-16, -1.000000000000000000 ) ) ;
#14 = DIRECTION ( 'NONE',  ( -3.491481338843133355E-15, 1.224646799147353207E-16, -1.000000000000000000 ) ) ;
#15 = ADVANCED_FACE ( 'NONE', ( #216, #110 ), #235, .T. ) ;
#16 = CARTESIAN_POINT ( 'NONE',  ( 0.0000000000000000000, 0.0000000000000000000, 0.0000000000000000000 ) ) ;
#17 = DIRECTION ( 'NONE',  ( 0.0000000000000000000, 1.000000000000000000, 0.0000000000000000000 ) ) ;
#18 = MECHANICAL_CONTEXT ( 'NONE', #228, 'mechanical' ) ;
#19 = DIRECTION ( 'NONE',  ( 3.491481338843133355E-15, -1.224646799147353207E-16, 1.000000000000000000 ) ) ;
#20 = CIRCLE ( 'NONE', #31, 1.500000000000001554 ) ;
#21 = DIRECTION ( 'NONE',  ( 3.491481338843133355E-15, -1.224646799147353207E-16, 1.000000000000000000 ) ) ;
#22 = SECURITY_CLASSIFICATION_LEVEL ( 'unclassified' ) ;
#23 = DIRECTION ( 'NONE',  ( -3.491481338843133355E-15, 1.224646799147353207E-16, -1.000000000000000000 ) ) ;
#24 = CARTESIAN_POINT ( 'NONE',  ( 1.745740669421566678E-13, -6.123233995736766085E-15, 50.00000000000000000 ) ) ;
#25 = AXIS2_PLACEMENT_3D ( 'NONE', #131, #19, #213 ) ;
#26 = CONICAL_SURFACE ( 'NONE', #236, 1.499999999999996669, 0.1745329251994258424 ) ;
#27 = DATE_TIME_ROLE ( 'creation_date' ) ;
#28 = DIRECTION ( 'NONE',  ( 0.0000000000000000000, 1.000000000000000000, 0.0000000000000000000 ) ) ;
#29 = DIRECTION ( 'NONE',  ( -3.491481338843133355E-15, 1.224646799147353207E-16, -1.000000000000000000 ) ) ;
#30 = CLOSED_SHELL ( 'NONE', ( #32, #15, #125, #2 ) ) ;
#31 = AXIS2_PLACEMENT_3D ( 'NONE', #157, #75, #180 ) ;
#32 = ADVANCED_FACE ( 'NONE', ( #296 ), #89, .F. ) ;
#33 = EDGE_LOOP ( 'NONE', ( #124 ) ) ;
#34 = EDGE_LOOP ( 'NONE', ( #166 ) ) ;
#35 =( NAMED_UNIT ( * ) SI_UNIT ( $, .STERADIAN. ) SOLID_ANGLE_UNIT ( ) );
#36 = LOCAL_TIME ( 9, 32, 31.00000000000000000, #272 ) ;
#37 = ORIENTED_EDGE ( 'NONE', *, *, #94, .T. ) ;
#38 = DIRECTION ( 'NONE',  ( 4.275831445896958607E-31, 1.000000000000000000, 1.224646799147353207E-16 ) ) ;
#39 = AXIS2_PLACEMENT_3D ( 'NONE', #153, #237, #178 ) ;
#40 = DIRECTION ( 'NONE',  ( 4.275831445896957731E-31, 1.000000000000000000, 1.224646799147353207E-16 ) ) ;
#41 = EDGE_CURVE ( 'NONE', #99, #99, #105, .T. ) ;
#42 =( GEOMETRIC_REPRESENTATION_CONTEXT ( 3 ) GLOBAL_UNCERTAINTY_ASSIGNED_CONTEXT ( ( #227 ) ) GLOBAL_UNIT_ASSIGNED_CONTEXT ( ( #249, #290, #35 ) ) REPRESENTATION_CONTEXT ( 'NONE', 'WORKASPACE' ) );
#43 = APPROVAL_STATUS ( 'not_yet_approved' ) ;
#44 = CARTESIAN_POINT ( 'NONE',  ( -3.630875432424113695E-31, 1.273539665514657790E-32, -1.039924055165412278E-16 ) ) ;
#45 = CYLINDRICAL_SURFACE ( 'NONE', #143, 1.499999999999999112 ) ;
#46 = CARTESIAN_POINT ( 'NONE',  ( 8.728703347107829444E-16, -3.061616997868381785E-17, 0.2499999999999998890 ) ) ;
#47 = ADVANCED_FACE ( 'NONE', ( #267, #239 ), #45, .T. ) ;
#48 = CARTESIAN_POINT ( 'NONE',  ( 0.0000000000000000000, 0.0000000000000000000, 0.0000000000000000000 ) ) ;
#49 = FACE_BOUND ( 'NONE', #83, .T. ) ;
#50 = TOROIDAL_SURFACE ( 'NONE', #132, 2.839999999999999858, 2.000000000000000000 ) ;
#51 = CIRCLE ( 'NONE', #226, 0.9935000000000000497 ) ;
#52 = DIRECTION ( 'NONE',  ( -3.491481338843133355E-15, 1.224646799147353207E-16, -1.000000000000000000 ) ) ;
#53 = CARTESIAN_POINT ( 'NONE',  ( 8.728703347107833388E-16, 0.9934999999999989395, 0.2500000000000000000 ) ) ;
#54 = ORIENTED_EDGE ( 'NONE', *, *, #149, .T. ) ;
#55 = COORDINATED_UNIVERSAL_TIME_OFFSET ( 1, 0, .AHEAD. ) ;
#56 = ORIENTED_EDGE ( 'NONE', *, *, #41, .T. ) ;
#57 = CALENDAR_DATE ( 2021, 30, 11 ) ;
#58 = PERSON_AND_ORGANIZATION_ROLE ( 'design_owner' ) ;
#59 = EDGE_LOOP ( 'NONE', ( #229 ) ) ;
#60 = FACE_OUTER_BOUND ( 'NONE', #81, .T. ) ;
#61 = DIRECTION ( 'NONE',  ( 3.491481338843133355E-15, -1.224646799147353207E-16, 1.000000000000000000 ) ) ;
#62 = CC_DESIGN_PERSON_AND_ORGANIZATION_ASSIGNMENT ( #208, #58, ( #276 ) ) ;
#63 = CARTESIAN_POINT ( 'NONE',  ( 6.405924284287275164E-14, -2.246895775456749140E-15, 18.34729635533384595 ) ) ;
#64 = FACE_OUTER_BOUND ( 'NONE', #284, .T. ) ;
#65 = CARTESIAN_POINT ( 'NONE',  ( 2.793185071074506684E-14, 7.450056720372761711E-33, 8.000000000000000000 ) ) ;
#66 = ADVANCED_FACE ( 'NONE', ( #133 ), #215, .F. ) ;
#67 = PERSON_AND_ORGANIZATION ( #165, #186 ) ;
#68 = FACE_OUTER_BOUND ( 'NONE', #34, .T. ) ;
#69 = APPROVAL ( #248, 'UNSPECIFIED' ) ;
#70 = CIRCLE ( 'NONE', #271, 0.8400000000000000799 ) ;
#71 = PERSON_AND_ORGANIZATION_ROLE ( 'design_supplier' ) ;
#72 = CARTESIAN_POINT ( 'NONE',  ( 1.735266225405037467E-13, 1.499999999999995559, 49.70000000000000284 ) ) ;
#73 = CARTESIAN_POINT ( 'NONE',  ( 2.793185071074506684E-14, 0.9934999999999989395, 8.000000000000000000 ) ) ;
#74 = ADVANCED_FACE ( 'NONE', ( #211 ), #87, .F. ) ;
#75 = DIRECTION ( 'NONE',  ( -3.491481338843133355E-15, 1.224646799147353207E-16, -1.000000000000000000 ) ) ;
#76 = PERSON_AND_ORGANIZATION ( #165, #186 ) ;
#77 = DIRECTION ( 'NONE',  ( 3.491481338843133355E-15, -1.224646799147353207E-16, 1.000000000000000000 ) ) ;
#78 = EDGE_LOOP ( 'NONE', ( #169 ) ) ;
#79 = CONICAL_SURFACE ( 'NONE', #150, 0.9935000000000000497, 0.5235987755982980385 ) ;
#80 = ORIENTED_EDGE ( 'NONE', *, *, #11, .F. ) ;
#81 = EDGE_LOOP ( 'NONE', ( #233 ) ) ;
#82 = CC_DESIGN_PERSON_AND_ORGANIZATION_ASSIGNMENT ( #67, #71, ( #129 ) ) ;
#83 = EDGE_LOOP ( 'NONE', ( #261 ) ) ;
#84 = DIRECTION ( 'NONE',  ( -3.491481338843133355E-15, 1.224646799147353207E-16, -1.000000000000000000 ) ) ;
#85 = CARTESIAN_POINT ( 'NONE',  ( 6.284666409917640040E-14, -2.168404344971008868E-15, 18.00000000000000000 ) ) ;
#86 = FACE_OUTER_BOUND ( 'NONE', #33, .T. ) ;
#87 = PLANE ( 'NONE',  #7 ) ;
#88 = CONICAL_SURFACE ( 'NONE', #282, 1.200000000000001732, 0.7853981633974453924 ) ;
#89 = PLANE ( 'NONE',  #25 ) ;
#90 = CALENDAR_DATE ( 2021, 30, 11 ) ;
#91 = VERTEX_POINT ( 'NONE', #185 ) ;
#92 = PRODUCT_DEFINITION ( 'UNKNOWN', '', #129, #142 ) ;
#93 = AXIS2_PLACEMENT_3D ( 'NONE', #117, #222, #4 ) ;
#94 = EDGE_CURVE ( 'NONE', #116, #116, #175, .T. ) ;
#95 = DATE_TIME_ROLE ( 'classification_date' ) ;
#96 = VERTEX_POINT ( 'NONE', #277 ) ;
#97 = CARTESIAN_POINT ( 'NONE',  ( 6.284666409917640040E-14, 0.8399999999999978595, 18.00000000000000000 ) ) ;
#98 = DATE_AND_TIME ( #3, #108 ) ;
#99 = VERTEX_POINT ( 'NONE', #73 ) ;
#100 = AXIS2_PLACEMENT_3D ( 'NONE', #46, #61, #112 ) ;
#101 = MANIFOLD_SOLID_BREP ( 'Corps-Déplacer/Copier1[1]', #270 ) ;
#102 = EDGE_CURVE ( 'NONE', #91, #91, #257, .T. ) ;
#103 = EDGE_LOOP ( 'NONE', ( #188 ) ) ;
#104 = EDGE_CURVE ( 'NONE', #181, #181, #294, .T. ) ;
#105 = CIRCLE ( 'NONE', #39, 0.9935000000000000497 ) ;
#106 = ADVANCED_FACE ( 'NONE', ( #64, #60 ), #50, .F. ) ;
#107 = ORIENTED_EDGE ( 'NONE', *, *, #104, .T. ) ;
#108 = LOCAL_TIME ( 9, 32, 31.00000000000000000, #121 ) ;
#109 = PLANE ( 'NONE',  #167 ) ;
#110 = FACE_OUTER_BOUND ( 'NONE', #230, .T. ) ;
#111 = APPLICATION_PROTOCOL_DEFINITION ( 'international standard', 'config_control_design', 1994, #228 ) ;
#112 = DIRECTION ( 'NONE',  ( -3.877060783869628517E-31, -1.000000000000000000, -1.091295593845501382E-16 ) ) ;
#113 = ORIENTED_EDGE ( 'NONE', *, *, #292, .T. ) ;
#114 = APPROVAL_PERSON_ORGANIZATION ( #9, #221, #176 ) ;
#115 = DIRECTION ( 'NONE',  ( -3.491481338843133355E-15, 1.224646799147353207E-16, -1.000000000000000000 ) ) ;
#116 = VERTEX_POINT ( 'NONE', #301 ) ;
#117 = CARTESIAN_POINT ( 'NONE',  ( 2.886013015238223984E-14, -1.012277099146737164E-15, 8.265869798961823278 ) ) ;
#118 = EDGE_CURVE ( 'NONE', #137, #137, #209, .T. ) ;
#119 = APPROVAL_PERSON_ORGANIZATION ( #182, #5, #204 ) ;
#120 = FACE_BOUND ( 'NONE', #103, .T. ) ;
#121 = COORDINATED_UNIVERSAL_TIME_OFFSET ( 1, 0, .AHEAD. ) ;
#122 = FACE_OUTER_BOUND ( 'NONE', #170, .T. ) ;
#123 = CC_DESIGN_APPROVAL ( #69, ( #129 ) ) ;
#124 = ORIENTED_EDGE ( 'NONE', *, *, #201, .F. ) ;
#125 = ADVANCED_FACE ( 'NONE', ( #291, #174 ), #138, .T. ) ;
#126 = EDGE_LOOP ( 'NONE', ( #56 ) ) ;
#127 = LOCAL_TIME ( 9, 32, 31.00000000000000000, #240 ) ;
#128 = EDGE_LOOP ( 'NONE', ( #205 ) ) ;
#129 = PRODUCT_DEFINITION_FORMATION_WITH_SPECIFIED_SOURCE ( 'ANY', '', #276, .NOT_KNOWN. ) ;
#130 = CARTESIAN_POINT ( 'NONE',  ( 6.284666409917640040E-14, -2.204364238465235428E-15, 18.00000000000000000 ) ) ;
#131 = CARTESIAN_POINT ( 'NONE',  ( -1.815437716212056848E-31, 6.367698327573288952E-33, -5.199620275827061392E-17 ) ) ;
#132 = AXIS2_PLACEMENT_3D ( 'NONE', #85, #173, #40 ) ;
#133 = FACE_OUTER_BOUND ( 'NONE', #126, .T. ) ;
#134 = CC_DESIGN_APPROVAL ( #5, ( #155 ) ) ;
#135 = DIRECTION ( 'NONE',  ( -3.491481338843133355E-15, 1.224646799147353207E-16, -1.000000000000000000 ) ) ;
#136 = CALENDAR_DATE ( 2021, 30, 11 ) ;
#137 = VERTEX_POINT ( 'NONE', #53 ) ;
#138 = CYLINDRICAL_SURFACE ( 'NONE', #231, 0.9934999999999996056 ) ;
#139 = ADVANCED_FACE ( 'NONE', ( #225, #154 ), #79, .T. ) ;
#140 = CARTESIAN_POINT ( 'NONE',  ( 1.745740669421566678E-13, 1.199999999999995515, 50.00000000000000000 ) ) ;
#141 = EDGE_LOOP ( 'NONE', ( #251 ) ) ;
#142 = DESIGN_CONTEXT ( 'detailed design', #247, 'design' ) ;
#143 = AXIS2_PLACEMENT_3D ( 'NONE', #234, #152, #172 ) ;
#144 = EDGE_LOOP ( 'NONE', ( #232 ) ) ;
#145 = CC_DESIGN_DATE_AND_TIME_ASSIGNMENT ( #220, #95, ( #155 ) ) ;
#146 = DATE_AND_TIME ( #57, #287 ) ;
#147 = AXIS2_PLACEMENT_3D ( 'NONE', #44, #260, #264 ) ;
#148 = DIRECTION ( 'NONE',  ( -3.491481338843133355E-15, 1.224646799147353207E-16, -1.000000000000000000 ) ) ;
#149 = EDGE_CURVE ( 'NONE', #274, #274, #20, .T. ) ;
#150 = AXIS2_PLACEMENT_3D ( 'NONE', #198, #115, #223 ) ;
#151 = DIRECTION ( 'NONE',  ( 3.491481338843133355E-15, -1.224646799147353207E-16, 1.000000000000000000 ) ) ;
#152 = DIRECTION ( 'NONE',  ( -3.491481338843133355E-15, 1.224646799147353207E-16, -1.000000000000000000 ) ) ;
#153 = CARTESIAN_POINT ( 'NONE',  ( 2.793185071074506684E-14, -9.797174393178825657E-16, 8.000000000000000000 ) ) ;
#154 = FACE_OUTER_BOUND ( 'NONE', #144, .T. ) ;
#155 = SECURITY_CLASSIFICATION ( '', '', #22 ) ;
#156 = APPROVAL_ROLE ( '' ) ;
#157 = CARTESIAN_POINT ( 'NONE',  ( 1.735266225405037467E-13, -6.086494591762345225E-15, 49.70000000000000284 ) ) ;
#158 = CC_DESIGN_PERSON_AND_ORGANIZATION_ASSIGNMENT ( #243, #300, ( #155 ) ) ;
#159 = VERTEX_POINT ( 'NONE', #246 ) ;
#160 = APPROVAL_DATE_TIME ( #146, #221 ) ;
#161 = EDGE_CURVE ( 'NONE', #303, #303, #258, .T. ) ;
#162 = AXIS2_PLACEMENT_3D ( 'NONE', #16, #206, #187 ) ;
#163 = FACE_OUTER_BOUND ( 'NONE', #141, .T. ) ;
#164 = ORIENTED_EDGE ( 'NONE', *, *, #118, .F. ) ;
#165 = PERSON ( 'UNSPECIFIED', 'UNSPECIFIED', 'UNSPECIFIED', ('UNSPECIFIED'), ('UNSPECIFIED'), ('UNSPECIFIED') ) ;
#166 = ORIENTED_EDGE ( 'NONE', *, *, #292, .F. ) ;
#167 = AXIS2_PLACEMENT_3D ( 'NONE', #65, #151, #196 ) ;
#168 = ADVANCED_FACE ( 'NONE', ( #120, #122 ), #26, .T. ) ;
#169 = ORIENTED_EDGE ( 'NONE', *, *, #161, .F. ) ;
#170 = EDGE_LOOP ( 'NONE', ( #37 ) ) ;
#171 = ORIENTED_EDGE ( 'NONE', *, *, #94, .F. ) ;
#172 = DIRECTION ( 'NONE',  ( 4.275831445896958607E-31, 1.000000000000000000, 1.224646799147353454E-16 ) ) ;
#173 = DIRECTION ( 'NONE',  ( -3.491481338843133355E-15, 1.224646799147353207E-16, -1.000000000000000000 ) ) ;
#174 = FACE_OUTER_BOUND ( 'NONE', #128, .T. ) ;
#175 = CIRCLE ( 'NONE', #212, 1.499999999999996669 ) ;
#176 = APPROVAL_ROLE ( '' ) ;
#177 = DIRECTION ( 'NONE',  ( 0.0000000000000000000, 1.000000000000000000, 0.0000000000000000000 ) ) ;
#178 = DIRECTION ( 'NONE',  ( 0.0000000000000000000, 1.000000000000000000, 0.0000000000000000000 ) ) ;
#179 = PERSON_AND_ORGANIZATION_ROLE ( 'creator' ) ;
#180 = DIRECTION ( 'NONE',  ( 0.0000000000000000000, 1.000000000000000000, 0.0000000000000000000 ) ) ;
#181 = VERTEX_POINT ( 'NONE', #200 ) ;
#182 = PERSON_AND_ORGANIZATION ( #165, #186 ) ;
#183 = CYLINDRICAL_SURFACE ( 'NONE', #273, 0.8400000000000003020 ) ;
#184 = CARTESIAN_POINT ( 'NONE',  ( 0.0000000000000000000, 0.0000000000000000000, 0.0000000000000000000 ) ) ;
#185 = CARTESIAN_POINT ( 'NONE',  ( 6.405924284287275164E-14, 0.8703844939755783772, 18.34729635533384595 ) ) ;
#186 = ORGANIZATION ( 'UNSPECIFIED', 'UNSPECIFIED', '' ) ;
#187 = DIRECTION ( 'NONE',  ( 1.000000000000000000, 0.0000000000000000000, 0.0000000000000000000 ) ) ;
#188 = ORIENTED_EDGE ( 'NONE', *, *, #102, .F. ) ;
#189 = COORDINATED_UNIVERSAL_TIME_OFFSET ( 1, 0, .AHEAD. ) ;
#190 = DIRECTION ( 'NONE',  ( -4.275831445896958607E-31, -1.000000000000000000, -1.224646799147353207E-16 ) ) ;
#191 = CC_DESIGN_SECURITY_CLASSIFICATION ( #155, ( #129 ) ) ;
#192 = CARTESIAN_POINT ( 'NONE',  ( 8.728703347107829444E-16, -3.061616997868381785E-17, 0.2499999999999998890 ) ) ;
#193 = DIRECTION ( 'NONE',  ( 3.877060783869628517E-31, 1.000000000000000000, 1.091295593845501382E-16 ) ) ;
#194 = DATE_AND_TIME ( #207, #195 ) ;
#195 = LOCAL_TIME ( 9, 32, 31.00000000000000000, #55 ) ;
#196 = DIRECTION ( 'NONE',  ( -4.275831445896958607E-31, -1.000000000000000000, -1.224646799147353207E-16 ) ) ;
#197 = CARTESIAN_POINT ( 'NONE',  ( 1.745740669421566678E-13, -6.123233995736766085E-15, 50.00000000000000000 ) ) ;
#198 = CARTESIAN_POINT ( 'NONE',  ( 2.793185071074506684E-14, -9.797174393178825657E-16, 8.000000000000000000 ) ) ;
#199 = PERSON_AND_ORGANIZATION ( #165, #186 ) ;
#200 = CARTESIAN_POINT ( 'NONE',  ( 4.276423536147513034E-47, 0.8491624327025946162, 0.0000000000000000000 ) ) ;
#201 = EDGE_CURVE ( 'NONE', #96, #96, #51, .T. ) ;
#202 = DIRECTION ( 'NONE',  ( 0.0000000000000000000, -1.000000000000000000, 0.0000000000000000000 ) ) ;
#203 = DIRECTION ( 'NONE',  ( 4.275831445896958607E-31, 1.000000000000000000, 1.224646799147353207E-16 ) ) ;
#204 = APPROVAL_ROLE ( '' ) ;
#205 = ORIENTED_EDGE ( 'NONE', *, *, #201, .T. ) ;
#206 = DIRECTION ( 'NONE',  ( 0.0000000000000000000, 0.0000000000000000000, 1.000000000000000000 ) ) ;
#207 = CALENDAR_DATE ( 2021, 30, 11 ) ;
#208 = PERSON_AND_ORGANIZATION ( #165, #186 ) ;
#209 = CIRCLE ( 'NONE', #302, 0.9934999999999989395 ) ;
#210 = EDGE_LOOP ( 'NONE', ( #254 ) ) ;
#211 = FACE_OUTER_BOUND ( 'NONE', #78, .T. ) ;
#212 = AXIS2_PLACEMENT_3D ( 'NONE', #259, #289, #177 ) ;
#213 = DIRECTION ( 'NONE',  ( -4.275831445896958607E-31, -1.000000000000000000, -1.224646799147353207E-16 ) ) ;
#214 = CC_DESIGN_PERSON_AND_ORGANIZATION_ASSIGNMENT ( #76, #179, ( #129 ) ) ;
#215 = PLANE ( 'NONE',  #262 ) ;
#216 = FACE_BOUND ( 'NONE', #210, .T. ) ;
#217 = AXIS2_PLACEMENT_3D ( 'NONE', #24, #242, #28 ) ;
#218 = CARTESIAN_POINT ( 'NONE',  ( 2.793185071074506684E-14, 7.450056720372761711E-33, 8.000000000000000000 ) ) ;
#219 = VERTEX_POINT ( 'NONE', #97 ) ;
#220 = DATE_AND_TIME ( #136, #36 ) ;
#221 = APPROVAL ( #43, 'UNSPECIFIED' ) ;
#222 = DIRECTION ( 'NONE',  ( -3.491481338843133355E-15, 1.224646799147353207E-16, -1.000000000000000000 ) ) ;
#223 = DIRECTION ( 'NONE',  ( 0.0000000000000000000, 1.000000000000000000, 0.0000000000000000000 ) ) ;
#224 = PERSON_AND_ORGANIZATION_ROLE ( 'creator' ) ;
#225 = FACE_BOUND ( 'NONE', #6, .T. ) ;
#226 = AXIS2_PLACEMENT_3D ( 'NONE', #1, #52, #299 ) ;
#227 = UNCERTAINTY_MEASURE_WITH_UNIT (LENGTH_MEASURE( 1.000000000000000082E-05 ), #249, 'distance_accuracy_value', 'NONE');
#228 = APPLICATION_CONTEXT ( 'configuration controlled 3d designs of mechanical parts and assemblies' ) ;
#229 = ORIENTED_EDGE ( 'NONE', *, *, #149, .F. ) ;
#230 = EDGE_LOOP ( 'NONE', ( #12 ) ) ;
#231 = AXIS2_PLACEMENT_3D ( 'NONE', #184, #29, #203 ) ;
#232 = ORIENTED_EDGE ( 'NONE', *, *, #41, .F. ) ;
#233 = ORIENTED_EDGE ( 'NONE', *, *, #102, .T. ) ;
#234 = CARTESIAN_POINT ( 'NONE',  ( 0.0000000000000000000, 0.0000000000000000000, 0.0000000000000000000 ) ) ;
#235 = CONICAL_SURFACE ( 'NONE', #100, 0.9934999999999989395, 0.5235987755982923764 ) ;
#236 = AXIS2_PLACEMENT_3D ( 'NONE', #244, #77, #202 ) ;
#237 = DIRECTION ( 'NONE',  ( -3.491481338843133355E-15, 1.224646799147353207E-16, -1.000000000000000000 ) ) ;
#238 = DIRECTION ( 'NONE',  ( 0.0000000000000000000, 1.000000000000000000, 0.0000000000000000000 ) ) ;
#239 = FACE_OUTER_BOUND ( 'NONE', #10, .T. ) ;
#240 = COORDINATED_UNIVERSAL_TIME_OFFSET ( 1, 0, .AHEAD. ) ;
#241 = APPROVAL_PERSON_ORGANIZATION ( #199, #69, #156 ) ;
#242 = DIRECTION ( 'NONE',  ( -3.491481338843133355E-15, 1.224646799147353207E-16, -1.000000000000000000 ) ) ;
#243 = PERSON_AND_ORGANIZATION ( #165, #186 ) ;
#244 = CARTESIAN_POINT ( 'NONE',  ( 7.652636943403930429E-14, -2.684183711227181100E-15, 21.91802332799966635 ) ) ;
#245 = CC_DESIGN_PERSON_AND_ORGANIZATION_ASSIGNMENT ( #268, #224, ( #92 ) ) ;
#246 = CARTESIAN_POINT ( 'NONE',  ( 2.886013015238223984E-14, 0.8399999999999996358, 8.265869798961823278 ) ) ;
#247 = APPLICATION_CONTEXT ( 'configuration controlled 3d designs of mechanical parts and assemblies' ) ;
#248 = APPROVAL_STATUS ( 'not_yet_approved' ) ;
#249 =( LENGTH_UNIT ( ) NAMED_UNIT ( * ) SI_UNIT ( .MILLI., .METRE. ) );
#250 = FACE_OUTER_BOUND ( 'NONE', #59, .T. ) ;
#251 = ORIENTED_EDGE ( 'NONE', *, *, #11, .T. ) ;
#252 = AXIS2_PLACEMENT_3D ( 'NONE', #63, #13, #238 ) ;
#253 = APPROVAL_STATUS ( 'not_yet_approved' ) ;
#254 = ORIENTED_EDGE ( 'NONE', *, *, #104, .F. ) ;
#255 = CC_DESIGN_DATE_AND_TIME_ASSIGNMENT ( #298, #27, ( #92 ) ) ;
#256 = EDGE_LOOP ( 'NONE', ( #164 ) ) ;
#257 = CIRCLE ( 'NONE', #252, 0.8703844939755807086 ) ;
#258 = CIRCLE ( 'NONE', #217, 1.200000000000001732 ) ;
#259 = CARTESIAN_POINT ( 'NONE',  ( 7.652636943403930429E-14, -2.684183711227181100E-15, 21.91802332799966635 ) ) ;
#260 = DIRECTION ( 'NONE',  ( -3.491481338843133355E-15, 1.224646799147353207E-16, -1.000000000000000000 ) ) ;
#261 = ORIENTED_EDGE ( 'NONE', *, *, #161, .T. ) ;
#262 = AXIS2_PLACEMENT_3D ( 'NONE', #218, #21, #190 ) ;
#263 = ADVANCED_FACE ( 'NONE', ( #163, #68 ), #183, .T. ) ;
#264 = DIRECTION ( 'NONE',  ( 4.275831445896958607E-31, 1.000000000000000000, 1.224646799147353207E-16 ) ) ;
#265 = PRODUCT_DEFINITION_SHAPE ( 'NONE', 'NONE',  #92 ) ;
#266 = APPLICATION_PROTOCOL_DEFINITION ( 'international standard', 'config_control_design', 1994, #247 ) ;
#267 = FACE_OUTER_BOUND ( 'NONE', #281, .T. ) ;
#268 = PERSON_AND_ORGANIZATION ( #165, #186 ) ;
#269 = DIRECTION ( 'NONE',  ( 4.275831445896958607E-31, 1.000000000000000000, 1.224646799147353207E-16 ) ) ;
#270 = CLOSED_SHELL ( 'NONE', ( #66, #139, #263, #106, #168, #47, #275, #74 ) ) ;
#271 = AXIS2_PLACEMENT_3D ( 'NONE', #130, #148, #17 ) ;
#272 = COORDINATED_UNIVERSAL_TIME_OFFSET ( 1, 0, .AHEAD. ) ;
#273 = AXIS2_PLACEMENT_3D ( 'NONE', #48, #135, #269 ) ;
#274 = VERTEX_POINT ( 'NONE', #72 ) ;
#275 = ADVANCED_FACE ( 'NONE', ( #250, #49 ), #88, .T. ) ;
#276 = PRODUCT ( '200107', '200107', '', ( #18 ) ) ;
#277 = CARTESIAN_POINT ( 'NONE',  ( 2.793185071074506684E-14, 0.9934999999999989395, 8.000000000000000000 ) ) ;
#278 = APPROVAL_DATE_TIME ( #98, #69 ) ;
#279 = DIRECTION ( 'NONE',  ( 0.0000000000000000000, 1.000000000000000000, 0.0000000000000000000 ) ) ;
#280 = PRODUCT_RELATED_PRODUCT_CATEGORY ( 'detail', '', ( #276 ) ) ;
#281 = EDGE_LOOP ( 'NONE', ( #171 ) ) ;
#282 = AXIS2_PLACEMENT_3D ( 'NONE', #197, #23, #279 ) ;
#283 = EDGE_LOOP ( 'NONE', ( #107 ) ) ;
#284 = EDGE_LOOP ( 'NONE', ( #80 ) ) ;
#285 = CARTESIAN_POINT ( 'NONE',  ( 1.745740669421566678E-13, 8.998558695971067645E-33, 50.00000000000000000 ) ) ;
#286 = ADVANCED_BREP_SHAPE_REPRESENTATION ( '200107', ( #101, #288, #162 ), #42 ) ;
#287 = LOCAL_TIME ( 9, 32, 31.00000000000000000, #189 ) ;
#288 = MANIFOLD_SOLID_BREP ( 'Corps-Déplacer/Copier1[2]', #30 ) ;
#289 = DIRECTION ( 'NONE',  ( -3.491481338843133355E-15, 1.224646799147353207E-16, -1.000000000000000000 ) ) ;
#290 =( NAMED_UNIT ( * ) PLANE_ANGLE_UNIT ( ) SI_UNIT ( $, .RADIAN. ) );
#291 = FACE_OUTER_BOUND ( 'NONE', #256, .T. ) ;
#292 = EDGE_CURVE ( 'NONE', #159, #159, #8, .T. ) ;
#293 = APPROVAL_DATE_TIME ( #194, #5 ) ;
#294 = CIRCLE ( 'NONE', #147, 0.8491624327025946162 ) ;
#295 = CC_DESIGN_APPROVAL ( #221, ( #92 ) ) ;
#296 = FACE_OUTER_BOUND ( 'NONE', #283, .T. ) ;
#297 = SHAPE_DEFINITION_REPRESENTATION ( #265, #286 ) ;
#298 = DATE_AND_TIME ( #90, #127 ) ;
#299 = DIRECTION ( 'NONE',  ( 0.0000000000000000000, 1.000000000000000000, 0.0000000000000000000 ) ) ;
#300 = PERSON_AND_ORGANIZATION_ROLE ( 'classification_officer' ) ;
#301 = CARTESIAN_POINT ( 'NONE',  ( 7.652636943403930429E-14, 1.499999999999994005, 21.91802332799966635 ) ) ;
#302 = AXIS2_PLACEMENT_3D ( 'NONE', #192, #14, #193 ) ;
#303 = VERTEX_POINT ( 'NONE', #140 ) ;
ENDSEC;
END-ISO-10303-21;
