ISO-10303-21;
HEADER;
FILE_DESCRIPTION (( 'STEP AP203' ),
    '1' );
FILE_NAME ('200106.step',
    '2021-11-30T08:32:30',
    ( '' ),
    ( '' ),
    'SwSTEP 2.0',
    'SolidWorks 2019',
    '' );
FILE_SCHEMA (( 'CONFIG_CONTROL_DESIGN' ));
ENDSEC;

DATA;
#1 = ORIENTED_EDGE ( 'NONE', *, *, #102, .T. ) ;
#2 = EDGE_CURVE ( 'NONE', #154, #154, #107, .T. ) ;
#3 = CIRCLE ( 'NONE', #291, 0.8441624327025947228 ) ;
#4 = ADVANCED_BREP_SHAPE_REPRESENTATION ( '200106', ( #137, #138, #42 ), #153 ) ;
#5 = AXIS2_PLACEMENT_3D ( 'NONE', #260, #62, #220 ) ;
#6 = CARTESIAN_POINT ( 'NONE',  ( 2.793185071074506684E-14, -9.797174393178825657E-16, 8.000000000000000000 ) ) ;
#7 = FACE_BOUND ( 'NONE', #208, .T. ) ;
#8 = DIRECTION ( 'NONE',  ( -3.491481338843133355E-15, 1.224646799147353207E-16, -1.000000000000000000 ) ) ;
#9 = CARTESIAN_POINT ( 'NONE',  ( 2.886013015238223984E-14, -1.012277099146737164E-15, 8.265869798961823278 ) ) ;
#10 = LOCAL_TIME ( 9, 32, 30.00000000000000000, #112 ) ;
#11 = DIRECTION ( 'NONE',  ( -3.491481338843133355E-15, 1.224646799147353207E-16, -1.000000000000000000 ) ) ;
#12 = CARTESIAN_POINT ( 'NONE',  ( -8.583802244057341407E-32, 3.010792532599294287E-33, -2.458498674634617161E-17 ) ) ;
#13 = AXIS2_PLACEMENT_3D ( 'NONE', #142, #276, #75 ) ;
#14 = CARTESIAN_POINT ( 'NONE',  ( 6.284666409917638777E-14, 0.8349999999999976330, 17.99999999999999645 ) ) ;
#15 = FACE_OUTER_BOUND ( 'NONE', #281, .T. ) ;
#16 = CYLINDRICAL_SURFACE ( 'NONE', #270, 0.8350000000000000755 ) ;
#17 = CALENDAR_DATE ( 2021, 30, 11 ) ;
#18 = APPLICATION_PROTOCOL_DEFINITION ( 'international standard', 'config_control_design', 1994, #74 ) ;
#19 = ADVANCED_FACE ( 'NONE', ( #7, #63 ), #45, .T. ) ;
#20 = PERSON_AND_ORGANIZATION ( #118, #173 ) ;
#21 = EDGE_LOOP ( 'NONE', ( #49 ) ) ;
#22 = DATE_AND_TIME ( #17, #257 ) ;
#23 = APPROVAL_ROLE ( '' ) ;
#24 = ORIENTED_EDGE ( 'NONE', *, *, #43, .T. ) ;
#25 = CARTESIAN_POINT ( 'NONE',  ( 2.793185071074506684E-14, 7.412562725806216365E-33, 8.000000000000000000 ) ) ;
#26 = AXIS2_PLACEMENT_3D ( 'NONE', #232, #170, #34 ) ;
#27 = CLOSED_SHELL ( 'NONE', ( #96, #19, #297, #133, #77, #39, #293, #95 ) ) ;
#28 = ORIENTED_EDGE ( 'NONE', *, *, #206, .T. ) ;
#29 = AXIS2_PLACEMENT_3D ( 'NONE', #38, #59, #282 ) ;
#30 = VERTEX_POINT ( 'NONE', #255 ) ;
#31 = CARTESIAN_POINT ( 'NONE',  ( 7.662537530724186338E-14, -2.687656369790909100E-15, 21.94637973709775025 ) ) ;
#32 = DIRECTION ( 'NONE',  ( 3.491481338843133355E-15, -1.224646799147353207E-16, 1.000000000000000000 ) ) ;
#33 = ADVANCED_FACE ( 'NONE', ( #155 ), #152, .F. ) ;
#34 = DIRECTION ( 'NONE',  ( 0.0000000000000000000, 1.000000000000000000, 0.0000000000000000000 ) ) ;
#35 = DIRECTION ( 'NONE',  ( 0.0000000000000000000, 1.000000000000000000, 0.0000000000000000000 ) ) ;
#36 = CARTESIAN_POINT ( 'NONE',  ( 0.0000000000000000000, 0.0000000000000000000, 0.0000000000000000000 ) ) ;
#37 = DIRECTION ( 'NONE',  ( -3.491481338843133355E-15, 1.224646799147353207E-16, -1.000000000000000000 ) ) ;
#38 = CARTESIAN_POINT ( 'NONE',  ( 8.728703347107833388E-16, -3.061616997868383018E-17, 0.2500000000000000000 ) ) ;
#39 = ADVANCED_FACE ( 'NONE', ( #15, #265 ), #261, .T. ) ;
#40 = PERSON_AND_ORGANIZATION ( #118, #173 ) ;
#41 = CIRCLE ( 'NONE', #269, 1.499999999999996669 ) ;
#42 = AXIS2_PLACEMENT_3D ( 'NONE', #135, #66, #181 ) ;
#43 = EDGE_CURVE ( 'NONE', #192, #192, #211, .T. ) ;
#44 = CC_DESIGN_PERSON_AND_ORGANIZATION_ASSIGNMENT ( #40, #90, ( #104 ) ) ;
#45 = CONICAL_SURFACE ( 'NONE', #295, 0.9885000000000002673, 0.5235987755982992597 ) ;
#46 = APPROVAL_STATUS ( 'not_yet_approved' ) ;
#47 = ORIENTED_EDGE ( 'NONE', *, *, #2, .F. ) ;
#48 = APPROVAL_ROLE ( '' ) ;
#49 = ORIENTED_EDGE ( 'NONE', *, *, #194, .T. ) ;
#50 = AXIS2_PLACEMENT_3D ( 'NONE', #165, #117, #236 ) ;
#51 = PLANE ( 'NONE',  #136 ) ;
#52 = CIRCLE ( 'NONE', #168, 0.8653844939755804822 ) ;
#53 = LOCAL_TIME ( 9, 32, 30.00000000000000000, #132 ) ;
#54 = ORIENTED_EDGE ( 'NONE', *, *, #76, .F. ) ;
#55 = AXIS2_PLACEMENT_3D ( 'NONE', #146, #86, #64 ) ;
#56 = FACE_OUTER_BOUND ( 'NONE', #274, .T. ) ;
#57 = EDGE_LOOP ( 'NONE', ( #24 ) ) ;
#58 = DIRECTION ( 'NONE',  ( -3.491481338843133355E-15, 1.224646799147353207E-16, -1.000000000000000000 ) ) ;
#59 = DIRECTION ( 'NONE',  ( 3.491481338843133355E-15, -1.224646799147353207E-16, 1.000000000000000000 ) ) ;
#60 = CARTESIAN_POINT ( 'NONE',  ( 2.793185071074506684E-14, 7.412562725806216365E-33, 8.000000000000000000 ) ) ;
#61 = CARTESIAN_POINT ( 'NONE',  ( 7.662537530724186338E-14, -2.687656369790909100E-15, 21.94637973709775025 ) ) ;
#62 = DIRECTION ( 'NONE',  ( -3.491481338843133355E-15, 1.224646799147353207E-16, -1.000000000000000000 ) ) ;
#63 = FACE_OUTER_BOUND ( 'NONE', #171, .T. ) ;
#64 = DIRECTION ( 'NONE',  ( 4.275831445896957731E-31, 1.000000000000000000, 1.224646799147353207E-16 ) ) ;
#65 = DIRECTION ( 'NONE',  ( 4.275831445896958607E-31, 1.000000000000000000, 1.224646799147353454E-16 ) ) ;
#66 = DIRECTION ( 'NONE',  ( 0.0000000000000000000, 0.0000000000000000000, 1.000000000000000000 ) ) ;
#67 = CARTESIAN_POINT ( 'NONE',  ( 0.0000000000000000000, 0.0000000000000000000, 0.0000000000000000000 ) ) ;
#68 = APPROVAL_STATUS ( 'not_yet_approved' ) ;
#69 = MECHANICAL_CONTEXT ( 'NONE', #74, 'mechanical' ) ;
#70 = DATE_AND_TIME ( #224, #53 ) ;
#71 = AXIS2_PLACEMENT_3D ( 'NONE', #175, #174, #35 ) ;
#72 = EDGE_LOOP ( 'NONE', ( #91 ) ) ;
#73 = ORIENTED_EDGE ( 'NONE', *, *, #169, .F. ) ;
#74 = APPLICATION_CONTEXT ( 'configuration controlled 3d designs of mechanical parts and assemblies' ) ;
#75 = DIRECTION ( 'NONE',  ( 4.275831445896957731E-31, 1.000000000000000000, 1.224646799147353207E-16 ) ) ;
#76 = EDGE_CURVE ( 'NONE', #143, #143, #85, .T. ) ;
#77 = ADVANCED_FACE ( 'NONE', ( #264, #103 ), #272, .T. ) ;
#78 = CYLINDRICAL_SURFACE ( 'NONE', #13, 0.9884999999999998233 ) ;
#79 = SECURITY_CLASSIFICATION ( '', '', #158 ) ;
#80 = FACE_BOUND ( 'NONE', #210, .T. ) ;
#81 = CARTESIAN_POINT ( 'NONE',  ( 6.405924284287275164E-14, -2.246895775456749140E-15, 18.34729635533384595 ) ) ;
#82 = APPROVAL ( #46, 'UNSPECIFIED' ) ;
#83 = FACE_OUTER_BOUND ( 'NONE', #72, .T. ) ;
#84 = DIRECTION ( 'NONE',  ( -4.275831445896958607E-31, -1.000000000000000000, -1.224646799147353207E-16 ) ) ;
#85 = CIRCLE ( 'NONE', #120, 0.9885000000000002673 ) ;
#86 = DIRECTION ( 'NONE',  ( -3.491481338843133355E-15, 1.224646799147353207E-16, -1.000000000000000000 ) ) ;
#87 = CARTESIAN_POINT ( 'NONE',  ( 2.793185071074506684E-14, -9.797174393178825657E-16, 8.000000000000000000 ) ) ;
#88 = DIRECTION ( 'NONE',  ( -3.491481338843133355E-15, 1.224646799147353207E-16, -1.000000000000000000 ) ) ;
#89 = CC_DESIGN_SECURITY_CLASSIFICATION ( #79, ( #104 ) ) ;
#90 = PERSON_AND_ORGANIZATION_ROLE ( 'creator' ) ;
#91 = ORIENTED_EDGE ( 'NONE', *, *, #141, .T. ) ;
#92 = APPLICATION_PROTOCOL_DEFINITION ( 'international standard', 'config_control_design', 1994, #161 ) ;
#93 = CIRCLE ( 'NONE', #130, 0.9885000000000002673 ) ;
#94 = EDGE_LOOP ( 'NONE', ( #54 ) ) ;
#95 = ADVANCED_FACE ( 'NONE', ( #109 ), #100, .F. ) ;
#96 = ADVANCED_FACE ( 'NONE', ( #83 ), #259, .F. ) ;
#97 = FACE_OUTER_BOUND ( 'NONE', #185, .T. ) ;
#98 = ORIENTED_EDGE ( 'NONE', *, *, #206, .F. ) ;
#99 = CARTESIAN_POINT ( 'NONE',  ( 1.745740669421566678E-13, -6.123233995736766085E-15, 50.00000000000000000 ) ) ;
#100 = PLANE ( 'NONE',  #162 ) ;
#101 = CARTESIAN_POINT ( 'NONE',  ( 7.662537530724186338E-14, 1.499999999999994005, 21.94637973709775025 ) ) ;
#102 = EDGE_CURVE ( 'NONE', #178, #178, #198, .T. ) ;
#103 = FACE_OUTER_BOUND ( 'NONE', #230, .T. ) ;
#104 = PRODUCT_DEFINITION_FORMATION_WITH_SPECIFIED_SOURCE ( 'ANY', '', #214, .NOT_KNOWN. ) ;
#105 = ADVANCED_FACE ( 'NONE', ( #204, #189 ), #78, .T. ) ;
#106 = VERTEX_POINT ( 'NONE', #101 ) ;
#107 = CIRCLE ( 'NONE', #50, 0.8349999999999998535 ) ;
#108 = CARTESIAN_POINT ( 'NONE',  ( 2.886013015238223984E-14, 0.8349999999999994094, 8.265869798961823278 ) ) ;
#109 = FACE_OUTER_BOUND ( 'NONE', #250, .T. ) ;
#110 = FACE_OUTER_BOUND ( 'NONE', #254, .T. ) ;
#111 = COORDINATED_UNIVERSAL_TIME_OFFSET ( 1, 0, .AHEAD. ) ;
#112 = COORDINATED_UNIVERSAL_TIME_OFFSET ( 1, 0, .AHEAD. ) ;
#113 = CALENDAR_DATE ( 2021, 30, 11 ) ;
#114 = EDGE_LOOP ( 'NONE', ( #256 ) ) ;
#115 = APPROVAL_DATE_TIME ( #22, #82 ) ;
#116 = APPROVAL ( #266, 'UNSPECIFIED' ) ;
#117 = DIRECTION ( 'NONE',  ( -3.491481338843133355E-15, 1.224646799147353207E-16, -1.000000000000000000 ) ) ;
#118 = PERSON ( 'UNSPECIFIED', 'UNSPECIFIED', 'UNSPECIFIED', ('UNSPECIFIED'), ('UNSPECIFIED'), ('UNSPECIFIED') ) ;
#119 = DIRECTION ( 'NONE',  ( 3.491481338843133355E-15, -1.224646799147353207E-16, 1.000000000000000000 ) ) ;
#120 = AXIS2_PLACEMENT_3D ( 'NONE', #87, #37, #241 ) ;
#121 = DIRECTION ( 'NONE',  ( -4.275831445896958607E-31, -1.000000000000000000, -1.224646799147353207E-16 ) ) ;
#122 = ORIENTED_EDGE ( 'NONE', *, *, #102, .F. ) ;
#123 = ORIENTED_EDGE ( 'NONE', *, *, #2, .T. ) ;
#124 = VERTEX_POINT ( 'NONE', #285 ) ;
#125 = DIRECTION ( 'NONE',  ( -4.275831445896958607E-31, -1.000000000000000000, -1.224646799147353207E-16 ) ) ;
#126 = ADVANCED_FACE ( 'NONE', ( #252 ), #51, .T. ) ;
#127 = CC_DESIGN_PERSON_AND_ORGANIZATION_ASSIGNMENT ( #164, #273, ( #279 ) ) ;
#128 = FACE_BOUND ( 'NONE', #301, .T. ) ;
#129 = DIRECTION ( 'NONE',  ( -3.491481338843133355E-15, 1.224646799147353207E-16, -1.000000000000000000 ) ) ;
#130 = AXIS2_PLACEMENT_3D ( 'NONE', #6, #131, #280 ) ;
#131 = DIRECTION ( 'NONE',  ( -3.491481338843133355E-15, 1.224646799147353207E-16, -1.000000000000000000 ) ) ;
#132 = COORDINATED_UNIVERSAL_TIME_OFFSET ( 1, 0, .AHEAD. ) ;
#133 = ADVANCED_FACE ( 'NONE', ( #97, #56 ), #186, .F. ) ;
#134 = ORIENTED_EDGE ( 'NONE', *, *, #169, .T. ) ;
#135 = CARTESIAN_POINT ( 'NONE',  ( 0.0000000000000000000, 0.0000000000000000000, 0.0000000000000000000 ) ) ;
#136 = AXIS2_PLACEMENT_3D ( 'NONE', #25, #119, #121 ) ;
#137 = MANIFOLD_SOLID_BREP ( 'Corps-Déplacer/Copier1[1]', #27 ) ;
#138 = MANIFOLD_SOLID_BREP ( 'Corps-Déplacer/Copier1[2]', #179 ) ;
#139 = AXIS2_PLACEMENT_3D ( 'NONE', #9, #196, #286 ) ;
#140 = ORIENTED_EDGE ( 'NONE', *, *, #159, .F. ) ;
#141 = EDGE_CURVE ( 'NONE', #30, #30, #93, .T. ) ;
#142 = CARTESIAN_POINT ( 'NONE',  ( 0.0000000000000000000, 0.0000000000000000000, 0.0000000000000000000 ) ) ;
#143 = VERTEX_POINT ( 'NONE', #258 ) ;
#144 = ORIENTED_EDGE ( 'NONE', *, *, #251, .T. ) ;
#145 = CC_DESIGN_APPROVAL ( #249, ( #279 ) ) ;
#146 = CARTESIAN_POINT ( 'NONE',  ( 6.284666409917640040E-14, -2.168404344971008868E-15, 18.00000000000000000 ) ) ;
#147 = DIRECTION ( 'NONE',  ( 0.0000000000000000000, -1.000000000000000000, 0.0000000000000000000 ) ) ;
#148 = PRODUCT_RELATED_PRODUCT_CATEGORY ( 'detail', '', ( #214 ) ) ;
#149 = FACE_OUTER_BOUND ( 'NONE', #209, .T. ) ;
#150 = DIRECTION ( 'NONE',  ( -3.491481338843133355E-15, 1.224646799147353207E-16, -1.000000000000000000 ) ) ;
#151 = FACE_OUTER_BOUND ( 'NONE', #167, .T. ) ;
#152 = PLANE ( 'NONE',  #216 ) ;
#153 =( GEOMETRIC_REPRESENTATION_CONTEXT ( 3 ) GLOBAL_UNCERTAINTY_ASSIGNED_CONTEXT ( ( #283 ) ) GLOBAL_UNIT_ASSIGNED_CONTEXT ( ( #218, #240, #246 ) ) REPRESENTATION_CONTEXT ( 'NONE', 'WORKASPACE' ) );
#154 = VERTEX_POINT ( 'NONE', #14 ) ;
#155 = FACE_OUTER_BOUND ( 'NONE', #21, .T. ) ;
#156 = AXIS2_PLACEMENT_3D ( 'NONE', #99, #88, #223 ) ;
#157 = CALENDAR_DATE ( 2021, 30, 11 ) ;
#158 = SECURITY_CLASSIFICATION_LEVEL ( 'unclassified' ) ;
#159 = EDGE_CURVE ( 'NONE', #199, #199, #302, .T. ) ;
#160 = APPROVAL_DATE_TIME ( #298, #249 ) ;
#161 = APPLICATION_CONTEXT ( 'configuration controlled 3d designs of mechanical parts and assemblies' ) ;
#162 = AXIS2_PLACEMENT_3D ( 'NONE', #221, #233, #284 ) ;
#163 = CC_DESIGN_PERSON_AND_ORGANIZATION_ASSIGNMENT ( #226, #228, ( #214 ) ) ;
#164 = PERSON_AND_ORGANIZATION ( #118, #173 ) ;
#165 = CARTESIAN_POINT ( 'NONE',  ( 6.284666409917638777E-14, -2.204364238465235033E-15, 17.99999999999999645 ) ) ;
#166 = DATE_AND_TIME ( #157, #195 ) ;
#167 = EDGE_LOOP ( 'NONE', ( #123 ) ) ;
#168 = AXIS2_PLACEMENT_3D ( 'NONE', #81, #129, #177 ) ;
#169 = EDGE_CURVE ( 'NONE', #124, #124, #278, .T. ) ;
#170 = DIRECTION ( 'NONE',  ( -3.491481338843133355E-15, 1.224646799147353207E-16, -1.000000000000000000 ) ) ;
#171 = EDGE_LOOP ( 'NONE', ( #303 ) ) ;
#172 = DIRECTION ( 'NONE',  ( 4.275831445896958607E-31, 1.000000000000000000, 1.224646799147353207E-16 ) ) ;
#173 = ORGANIZATION ( 'UNSPECIFIED', 'UNSPECIFIED', '' ) ;
#174 = DIRECTION ( 'NONE',  ( -3.491481338843133355E-15, 1.224646799147353207E-16, -1.000000000000000000 ) ) ;
#175 = CARTESIAN_POINT ( 'NONE',  ( 1.735266225405037467E-13, -6.086494591762345225E-15, 49.70000000000000284 ) ) ;
#176 = AXIS2_PLACEMENT_3D ( 'NONE', #67, #150, #65 ) ;
#177 = DIRECTION ( 'NONE',  ( 0.0000000000000000000, 1.000000000000000000, 0.0000000000000000000 ) ) ;
#178 = VERTEX_POINT ( 'NONE', #108 ) ;
#179 = CLOSED_SHELL ( 'NONE', ( #33, #229, #105, #126 ) ) ;
#180 = SHAPE_DEFINITION_REPRESENTATION ( #225, #4 ) ;
#181 = DIRECTION ( 'NONE',  ( 1.000000000000000000, 0.0000000000000000000, 0.0000000000000000000 ) ) ;
#182 = CONICAL_SURFACE ( 'NONE', #29, 0.9884999999999991571, 0.5235987755982925984 ) ;
#183 = CC_DESIGN_APPROVAL ( #116, ( #104 ) ) ;
#184 = APPROVAL_DATE_TIME ( #243, #116 ) ;
#185 = EDGE_LOOP ( 'NONE', ( #47 ) ) ;
#186 = TOROIDAL_SURFACE ( 'NONE', #55, 2.834999999999999964, 2.000000000000000000 ) ;
#187 = CALENDAR_DATE ( 2021, 30, 11 ) ;
#188 = CC_DESIGN_DATE_AND_TIME_ASSIGNMENT ( #70, #247, ( #79 ) ) ;
#189 = FACE_OUTER_BOUND ( 'NONE', #277, .T. ) ;
#190 = ORIENTED_EDGE ( 'NONE', *, *, #43, .F. ) ;
#191 = ORIENTED_EDGE ( 'NONE', *, *, #194, .F. ) ;
#192 = VERTEX_POINT ( 'NONE', #263 ) ;
#193 = DIRECTION ( 'NONE',  ( 4.275831445896958607E-31, 1.000000000000000000, 1.224646799147353207E-16 ) ) ;
#194 = EDGE_CURVE ( 'NONE', #217, #217, #3, .T. ) ;
#195 = LOCAL_TIME ( 9, 32, 30.00000000000000000, #111 ) ;
#196 = DIRECTION ( 'NONE',  ( -3.491481338843133355E-15, 1.224646799147353207E-16, -1.000000000000000000 ) ) ;
#197 = CARTESIAN_POINT ( 'NONE',  ( -1.716760448811468281E-31, 6.021585065198588573E-33, -4.916997349269234322E-17 ) ) ;
#198 = CIRCLE ( 'NONE', #139, 0.8350000000000002975 ) ;
#199 = VERTEX_POINT ( 'NONE', #234 ) ;
#200 = CARTESIAN_POINT ( 'NONE',  ( 2.793185071074506684E-14, -9.797174393178825657E-16, 8.000000000000000000 ) ) ;
#201 = CC_DESIGN_PERSON_AND_ORGANIZATION_ASSIGNMENT ( #203, #271, ( #79 ) ) ;
#202 = DATE_TIME_ROLE ( 'creation_date' ) ;
#203 = PERSON_AND_ORGANIZATION ( #118, #173 ) ;
#204 = FACE_OUTER_BOUND ( 'NONE', #213, .T. ) ;
#205 = PERSON_AND_ORGANIZATION ( #118, #173 ) ;
#206 = EDGE_CURVE ( 'NONE', #106, #106, #41, .T. ) ;
#207 = APPROVAL_PERSON_ORGANIZATION ( #248, #116, #48 ) ;
#208 = EDGE_LOOP ( 'NONE', ( #1 ) ) ;
#209 = EDGE_LOOP ( 'NONE', ( #190 ) ) ;
#210 = EDGE_LOOP ( 'NONE', ( #134 ) ) ;
#211 = CIRCLE ( 'NONE', #71, 1.500000000000001554 ) ;
#212 = ORIENTED_EDGE ( 'NONE', *, *, #159, .T. ) ;
#213 = EDGE_LOOP ( 'NONE', ( #140 ) ) ;
#214 = PRODUCT ( '200106', '200106', '', ( #69 ) ) ;
#215 = CARTESIAN_POINT ( 'NONE',  ( 6.405924284287275164E-14, 0.8653844939755781507, 18.34729635533384595 ) ) ;
#216 = AXIS2_PLACEMENT_3D ( 'NONE', #12, #288, #84 ) ;
#217 = VERTEX_POINT ( 'NONE', #237 ) ;
#218 =( LENGTH_UNIT ( ) NAMED_UNIT ( * ) SI_UNIT ( .MILLI., .METRE. ) );
#219 = CC_DESIGN_APPROVAL ( #82, ( #79 ) ) ;
#220 = DIRECTION ( 'NONE',  ( 3.896671612316110456E-31, 1.000000000000000000, 1.096815551325751556E-16 ) ) ;
#221 = CARTESIAN_POINT ( 'NONE',  ( 1.745740669421566678E-13, 8.998558695971067645E-33, 50.00000000000000000 ) ) ;
#222 = AXIS2_PLACEMENT_3D ( 'NONE', #31, #292, #147 ) ;
#223 = DIRECTION ( 'NONE',  ( 0.0000000000000000000, 1.000000000000000000, 0.0000000000000000000 ) ) ;
#224 = CALENDAR_DATE ( 2021, 30, 11 ) ;
#225 = PRODUCT_DEFINITION_SHAPE ( 'NONE', 'NONE',  #279 ) ;
#226 = PERSON_AND_ORGANIZATION ( #118, #173 ) ;
#227 = PERSON_AND_ORGANIZATION ( #118, #173 ) ;
#228 = PERSON_AND_ORGANIZATION_ROLE ( 'design_owner' ) ;
#229 = ADVANCED_FACE ( 'NONE', ( #128, #110 ), #182, .T. ) ;
#230 = EDGE_LOOP ( 'NONE', ( #28 ) ) ;
#231 = EDGE_LOOP ( 'NONE', ( #122 ) ) ;
#232 = CARTESIAN_POINT ( 'NONE',  ( 1.745740669421566678E-13, -6.123233995736766085E-15, 50.00000000000000000 ) ) ;
#233 = DIRECTION ( 'NONE',  ( -3.491481338843133355E-15, 1.224646799147353207E-16, -1.000000000000000000 ) ) ;
#234 = CARTESIAN_POINT ( 'NONE',  ( 8.728703347107837333E-16, 0.9884999999999991571, 0.2500000000000001110 ) ) ;
#235 = DESIGN_CONTEXT ( 'detailed design', #161, 'design' ) ;
#236 = DIRECTION ( 'NONE',  ( 0.0000000000000000000, 1.000000000000000000, 0.0000000000000000000 ) ) ;
#237 = CARTESIAN_POINT ( 'NONE',  ( 1.892735826383161575E-31, 0.8441624327025947228, 5.421010862427522170E-17 ) ) ;
#238 = DIRECTION ( 'NONE',  ( 0.0000000000000000000, 1.000000000000000000, 0.0000000000000000000 ) ) ;
#239 = APPROVAL_PERSON_ORGANIZATION ( #227, #82, #294 ) ;
#240 =( NAMED_UNIT ( * ) PLANE_ANGLE_UNIT ( ) SI_UNIT ( $, .RADIAN. ) );
#241 = DIRECTION ( 'NONE',  ( 0.0000000000000000000, 1.000000000000000000, 0.0000000000000000000 ) ) ;
#242 = AXIS2_PLACEMENT_3D ( 'NONE', #60, #32, #125 ) ;
#243 = DATE_AND_TIME ( #113, #10 ) ;
#244 = COORDINATED_UNIVERSAL_TIME_OFFSET ( 1, 0, .AHEAD. ) ;
#245 = APPROVAL_PERSON_ORGANIZATION ( #20, #249, #23 ) ;
#246 =( NAMED_UNIT ( * ) SI_UNIT ( $, .STERADIAN. ) SOLID_ANGLE_UNIT ( ) );
#247 = DATE_TIME_ROLE ( 'classification_date' ) ;
#248 = PERSON_AND_ORGANIZATION ( #118, #173 ) ;
#249 = APPROVAL ( #68, 'UNSPECIFIED' ) ;
#250 = EDGE_LOOP ( 'NONE', ( #73 ) ) ;
#251 = EDGE_CURVE ( 'NONE', #289, #289, #52, .T. ) ;
#252 = FACE_OUTER_BOUND ( 'NONE', #94, .T. ) ;
#253 = ORIENTED_EDGE ( 'NONE', *, *, #76, .T. ) ;
#254 = EDGE_LOOP ( 'NONE', ( #212 ) ) ;
#255 = CARTESIAN_POINT ( 'NONE',  ( 2.793185071074506684E-14, 0.9884999999999991571, 8.000000000000000000 ) ) ;
#256 = ORIENTED_EDGE ( 'NONE', *, *, #251, .F. ) ;
#257 = LOCAL_TIME ( 9, 32, 30.00000000000000000, #244 ) ;
#258 = CARTESIAN_POINT ( 'NONE',  ( 2.793185071074506684E-14, 0.9884999999999991571, 8.000000000000000000 ) ) ;
#259 = PLANE ( 'NONE',  #242 ) ;
#260 = CARTESIAN_POINT ( 'NONE',  ( 8.728703347107833388E-16, -3.061616997868383018E-17, 0.2500000000000000000 ) ) ;
#261 = CYLINDRICAL_SURFACE ( 'NONE', #176, 1.499999999999999112 ) ;
#262 = CC_DESIGN_DATE_AND_TIME_ASSIGNMENT ( #166, #202, ( #279 ) ) ;
#263 = CARTESIAN_POINT ( 'NONE',  ( 1.735266225405037467E-13, 1.499999999999995559, 49.70000000000000284 ) ) ;
#264 = FACE_BOUND ( 'NONE', #114, .T. ) ;
#265 = FACE_OUTER_BOUND ( 'NONE', #57, .T. ) ;
#266 = APPROVAL_STATUS ( 'not_yet_approved' ) ;
#267 = DIRECTION ( 'NONE',  ( -3.491481338843133355E-15, 1.224646799147353207E-16, -1.000000000000000000 ) ) ;
#268 = PERSON_AND_ORGANIZATION_ROLE ( 'design_supplier' ) ;
#269 = AXIS2_PLACEMENT_3D ( 'NONE', #61, #58, #238 ) ;
#270 = AXIS2_PLACEMENT_3D ( 'NONE', #36, #11, #193 ) ;
#271 = PERSON_AND_ORGANIZATION_ROLE ( 'classification_officer' ) ;
#272 = CONICAL_SURFACE ( 'NONE', #222, 1.499999999999996669, 0.1745329251994262865 ) ;
#273 = PERSON_AND_ORGANIZATION_ROLE ( 'creator' ) ;
#274 = EDGE_LOOP ( 'NONE', ( #144 ) ) ;
#275 = LOCAL_TIME ( 9, 32, 30.00000000000000000, #296 ) ;
#276 = DIRECTION ( 'NONE',  ( -3.491481338843133355E-15, 1.224646799147353207E-16, -1.000000000000000000 ) ) ;
#277 = EDGE_LOOP ( 'NONE', ( #253 ) ) ;
#278 = CIRCLE ( 'NONE', #156, 1.200000000000001732 ) ;
#279 = PRODUCT_DEFINITION ( 'UNKNOWN', '', #104, #235 ) ;
#280 = DIRECTION ( 'NONE',  ( 0.0000000000000000000, 1.000000000000000000, 0.0000000000000000000 ) ) ;
#281 = EDGE_LOOP ( 'NONE', ( #98 ) ) ;
#282 = DIRECTION ( 'NONE',  ( -3.896671612316110456E-31, -1.000000000000000000, -1.096815551325751556E-16 ) ) ;
#283 = UNCERTAINTY_MEASURE_WITH_UNIT (LENGTH_MEASURE( 1.000000000000000082E-05 ), #218, 'distance_accuracy_value', 'NONE');
#284 = DIRECTION ( 'NONE',  ( 4.275831445896958607E-31, 1.000000000000000000, 1.224646799147353207E-16 ) ) ;
#285 = CARTESIAN_POINT ( 'NONE',  ( 1.745740669421566678E-13, 1.199999999999995515, 50.00000000000000000 ) ) ;
#286 = DIRECTION ( 'NONE',  ( 0.0000000000000000000, 1.000000000000000000, 0.0000000000000000000 ) ) ;
#287 = FACE_OUTER_BOUND ( 'NONE', #231, .T. ) ;
#288 = DIRECTION ( 'NONE',  ( 3.491481338843133355E-15, -1.224646799147353207E-16, 1.000000000000000000 ) ) ;
#289 = VERTEX_POINT ( 'NONE', #215 ) ;
#290 = DIRECTION ( 'NONE',  ( 0.0000000000000000000, 1.000000000000000000, 0.0000000000000000000 ) ) ;
#291 = AXIS2_PLACEMENT_3D ( 'NONE', #197, #8, #172 ) ;
#292 = DIRECTION ( 'NONE',  ( 3.491481338843133355E-15, -1.224646799147353207E-16, 1.000000000000000000 ) ) ;
#293 = ADVANCED_FACE ( 'NONE', ( #149, #80 ), #299, .T. ) ;
#294 = APPROVAL_ROLE ( '' ) ;
#295 = AXIS2_PLACEMENT_3D ( 'NONE', #200, #267, #290 ) ;
#296 = COORDINATED_UNIVERSAL_TIME_OFFSET ( 1, 0, .AHEAD. ) ;
#297 = ADVANCED_FACE ( 'NONE', ( #151, #287 ), #16, .T. ) ;
#298 = DATE_AND_TIME ( #187, #275 ) ;
#299 = CONICAL_SURFACE ( 'NONE', #26, 1.200000000000001732, 0.7853981633974453924 ) ;
#300 = CC_DESIGN_PERSON_AND_ORGANIZATION_ASSIGNMENT ( #205, #268, ( #104 ) ) ;
#301 = EDGE_LOOP ( 'NONE', ( #191 ) ) ;
#302 = CIRCLE ( 'NONE', #5, 0.9884999999999991571 ) ;
#303 = ORIENTED_EDGE ( 'NONE', *, *, #141, .F. ) ;
ENDSEC;
END-ISO-10303-21;
