ISO-10303-21;
HEADER;
FILE_DESCRIPTION (( 'STEP AP203' ),
    '1' );
FILE_NAME ('200105.step',
    '2021-11-30T08:32:30',
    ( '' ),
    ( '' ),
    'SwSTEP 2.0',
    'SolidWorks 2019',
    '' );
FILE_SCHEMA (( 'CONFIG_CONTROL_DESIGN' ));
ENDSEC;

DATA;
#1 = CARTESIAN_POINT ( 'NONE',  ( 1.745740669421566678E-13, -6.123233995736766085E-15, 50.00000000000000000 ) ) ;
#2 = CONICAL_SURFACE ( 'NONE', #281, 0.7634999999999990683, 0.5235987755982930425 ) ;
#3 = EDGE_LOOP ( 'NONE', ( #291 ) ) ;
#4 = APPLICATION_CONTEXT ( 'configuration controlled 3d designs of mechanical parts and assemblies' ) ;
#5 = AXIS2_PLACEMENT_3D ( 'NONE', #68, #288, #264 ) ;
#6 = CONICAL_SURFACE ( 'NONE', #90, 1.200000000000001732, 0.7853981633974453924 ) ;
#7 = PERSON_AND_ORGANIZATION ( #222, #82 ) ;
#8 = CIRCLE ( 'NONE', #127, 0.7634999999999990683 ) ;
#9 = SHAPE_DEFINITION_REPRESENTATION ( #28, #51 ) ;
#10 = APPROVAL_ROLE ( '' ) ;
#11 = DIRECTION ( 'NONE',  ( -3.491481338843133355E-15, 1.224646799147353207E-16, -1.000000000000000000 ) ) ;
#12 = PERSON_AND_ORGANIZATION ( #222, #82 ) ;
#13 = AXIS2_PLACEMENT_3D ( 'NONE', #275, #227, #72 ) ;
#14 = FACE_OUTER_BOUND ( 'NONE', #3, .T. ) ;
#15 = ADVANCED_FACE ( 'NONE', ( #301 ), #276, .F. ) ;
#16 = DIRECTION ( 'NONE',  ( 4.275831445896958607E-31, 1.000000000000000000, 1.224646799147353207E-16 ) ) ;
#17 = DIRECTION ( 'NONE',  ( -4.275831445896958607E-31, -1.000000000000000000, -1.224646799147353207E-16 ) ) ;
#18 = ADVANCED_FACE ( 'NONE', ( #132, #199 ), #209, .T. ) ;
#19 = FACE_OUTER_BOUND ( 'NONE', #129, .T. ) ;
#20 = AXIS2_PLACEMENT_3D ( 'NONE', #302, #226, #24 ) ;
#21 = EDGE_LOOP ( 'NONE', ( #214 ) ) ;
#22 = DIRECTION ( 'NONE',  ( 0.0000000000000000000, 1.000000000000000000, 0.0000000000000000000 ) ) ;
#23 = PRODUCT_RELATED_PRODUCT_CATEGORY ( 'detail', '', ( #230 ) ) ;
#24 = DIRECTION ( 'NONE',  ( 4.275831445896958607E-31, 1.000000000000000000, 1.224646799147352961E-16 ) ) ;
#25 = EDGE_LOOP ( 'NONE', ( #65 ) ) ;
#26 = EDGE_CURVE ( 'NONE', #246, #246, #111, .T. ) ;
#27 = LOCAL_TIME ( 9, 32, 30.00000000000000000, #108 ) ;
#28 = PRODUCT_DEFINITION_SHAPE ( 'NONE', 'NONE',  #202 ) ;
#29 = COORDINATED_UNIVERSAL_TIME_OFFSET ( 1, 0, .AHEAD. ) ;
#30 = APPROVAL_ROLE ( '' ) ;
#31 = APPROVAL_DATE_TIME ( #78, #187 ) ;
#32 = ORIENTED_EDGE ( 'NONE', *, *, #280, .T. ) ;
#33 = APPROVAL_STATUS ( 'not_yet_approved' ) ;
#34 = CC_DESIGN_DATE_AND_TIME_ASSIGNMENT ( #83, #169, ( #202 ) ) ;
#35 = FACE_OUTER_BOUND ( 'NONE', #21, .T. ) ;
#36 = PERSON_AND_ORGANIZATION ( #222, #82 ) ;
#37 = ORIENTED_EDGE ( 'NONE', *, *, #270, .T. ) ;
#38 = CARTESIAN_POINT ( 'NONE',  ( 5.237222008264700033E-14, 0.6599999999999982547, 15.00000000000000000 ) ) ;
#39 = DIRECTION ( 'NONE',  ( -5.045003128715751457E-31, -1.000000000000000000, -1.420042138160452796E-16 ) ) ;
#40 = LOCAL_TIME ( 9, 32, 30.00000000000000000, #124 ) ;
#41 = CIRCLE ( 'NONE', #67, 0.7634999999999999565 ) ;
#42 = DIRECTION ( 'NONE',  ( 5.045003128715751457E-31, 1.000000000000000000, 1.420042138160452796E-16 ) ) ;
#43 = CARTESIAN_POINT ( 'NONE',  ( 8.728703347107831416E-16, -3.061616997868382402E-17, 0.2499999999999999445 ) ) ;
#44 = ADVANCED_FACE ( 'NONE', ( #220, #35 ), #192, .F. ) ;
#45 = CARTESIAN_POINT ( 'NONE',  ( 1.745740669421566678E-13, -6.123233995736766085E-15, 50.00000000000000000 ) ) ;
#46 = ADVANCED_FACE ( 'NONE', ( #290 ), #176, .F. ) ;
#47 = CLOSED_SHELL ( 'NONE', ( #15, #18, #216, #44, #234, #101, #247, #107 ) ) ;
#48 = CARTESIAN_POINT ( 'NONE',  ( 5.237222008264700033E-14, -1.836970198721029589E-15, 15.00000000000000000 ) ) ;
#49 = VERTEX_POINT ( 'NONE', #141 ) ;
#50 = DESIGN_CONTEXT ( 'detailed design', #255, 'design' ) ;
#51 = ADVANCED_BREP_SHAPE_REPRESENTATION ( '200105', ( #253, #62, #185 ), #167 ) ;
#52 = CONICAL_SURFACE ( 'NONE', #126, 1.499999999999996447, 0.1745329251994262032 ) ;
#53 = VERTEX_POINT ( 'NONE', #125 ) ;
#54 = EDGE_LOOP ( 'NONE', ( #165 ) ) ;
#55 = CC_DESIGN_APPROVAL ( #187, ( #202 ) ) ;
#56 = PERSON_AND_ORGANIZATION ( #222, #82 ) ;
#57 = PERSON_AND_ORGANIZATION_ROLE ( 'design_supplier' ) ;
#58 = CARTESIAN_POINT ( 'NONE',  ( 8.728703347107835360E-16, 0.7634999999999990683, 0.2500000000000000555 ) ) ;
#59 = ORIENTED_EDGE ( 'NONE', *, *, #128, .F. ) ;
#60 = AXIS2_PLACEMENT_3D ( 'NONE', #201, #184, #17 ) ;
#61 = CALENDAR_DATE ( 2021, 30, 11 ) ;
#62 = MANIFOLD_SOLID_BREP ( 'Corps-Déplacer/Copier1[2]', #173 ) ;
#63 = ORIENTED_EDGE ( 'NONE', *, *, #293, .F. ) ;
#64 = DIRECTION ( 'NONE',  ( 0.0000000000000000000, 1.000000000000000000, 0.0000000000000000000 ) ) ;
#65 = ORIENTED_EDGE ( 'NONE', *, *, #105, .T. ) ;
#66 = DIRECTION ( 'NONE',  ( 0.0000000000000000000, 1.000000000000000000, 0.0000000000000000000 ) ) ;
#67 = AXIS2_PLACEMENT_3D ( 'NONE', #241, #11, #109 ) ;
#68 = CARTESIAN_POINT ( 'NONE',  ( 2.444036937190193349E-14, 5.725332970311628609E-33, 7.000000000000000000 ) ) ;
#69 = DIRECTION ( 'NONE',  ( 4.275831445896958607E-31, 1.000000000000000000, 1.224646799147352961E-16 ) ) ;
#70 = CYLINDRICAL_SURFACE ( 'NONE', #102, 0.7634999999999995124 ) ;
#71 = CIRCLE ( 'NONE', #13, 1.499999999999996447 ) ;
#72 = DIRECTION ( 'NONE',  ( 0.0000000000000000000, 1.000000000000000000, 0.0000000000000000000 ) ) ;
#73 = EDGE_LOOP ( 'NONE', ( #265 ) ) ;
#74 = CARTESIAN_POINT ( 'NONE',  ( 2.444036937190193349E-14, 5.725332970311628609E-33, 7.000000000000000000 ) ) ;
#75 = AXIS2_PLACEMENT_3D ( 'NONE', #45, #92, #64 ) ;
#76 = ADVANCED_FACE ( 'NONE', ( #87 ), #224, .T. ) ;
#77 = DIRECTION ( 'NONE',  ( 1.000000000000000000, 0.0000000000000000000, 0.0000000000000000000 ) ) ;
#78 = DATE_AND_TIME ( #289, #271 ) ;
#79 = PERSON_AND_ORGANIZATION ( #222, #82 ) ;
#80 = APPROVAL ( #144, 'UNSPECIFIED' ) ;
#81 = VERTEX_POINT ( 'NONE', #58 ) ;
#82 = ORGANIZATION ( 'UNSPECIFIED', 'UNSPECIFIED', '' ) ;
#83 = DATE_AND_TIME ( #285, #121 ) ;
#84 = AXIS2_PLACEMENT_3D ( 'NONE', #182, #196, #179 ) ;
#85 = DIRECTION ( 'NONE',  ( -3.491481338843133355E-15, 1.224646799147353207E-16, -1.000000000000000000 ) ) ;
#86 = APPROVAL_ROLE ( '' ) ;
#87 = FACE_OUTER_BOUND ( 'NONE', #149, .T. ) ;
#88 = EDGE_LOOP ( 'NONE', ( #32 ) ) ;
#89 = CARTESIAN_POINT ( 'NONE',  ( 2.444036937190193349E-14, -8.572527594031473190E-16, 7.000000000000000000 ) ) ;
#90 = AXIS2_PLACEMENT_3D ( 'NONE', #1, #272, #95 ) ;
#91 = DIRECTION ( 'NONE',  ( -3.491481338843133355E-15, 1.224646799147353207E-16, -1.000000000000000000 ) ) ;
#92 = DIRECTION ( 'NONE',  ( -3.491481338843133355E-15, 1.224646799147353207E-16, -1.000000000000000000 ) ) ;
#93 = FACE_BOUND ( 'NONE', #142, .T. ) ;
#94 = AXIS2_PLACEMENT_3D ( 'NONE', #239, #217, #292 ) ;
#95 = DIRECTION ( 'NONE',  ( 0.0000000000000000000, 1.000000000000000000, 0.0000000000000000000 ) ) ;
#96 = CARTESIAN_POINT ( 'NONE',  ( 5.358479882634335789E-14, -1.879501735712543302E-15, 15.34729635533384595 ) ) ;
#97 = EDGE_CURVE ( 'NONE', #49, #49, #98, .T. ) ;
#98 = CIRCLE ( 'NONE', #181, 1.500000000000001554 ) ;
#99 = CC_DESIGN_PERSON_AND_ORGANIZATION_ASSIGNMENT ( #36, #57, ( #257 ) ) ;
#100 = CARTESIAN_POINT ( 'NONE',  ( 2.506627765991136237E-14, -8.792066668447528551E-16, 7.179267258583378108 ) ) ;
#101 = ADVANCED_FACE ( 'NONE', ( #19, #294 ), #115, .T. ) ;
#102 = AXIS2_PLACEMENT_3D ( 'NONE', #112, #135, #16 ) ;
#103 = DATE_TIME_ROLE ( 'classification_date' ) ;
#104 = DATE_AND_TIME ( #61, #159 ) ;
#105 = EDGE_CURVE ( 'NONE', #188, #188, #251, .T. ) ;
#106 = ORIENTED_EDGE ( 'NONE', *, *, #229, .T. ) ;
#107 = ADVANCED_FACE ( 'NONE', ( #114 ), #156, .F. ) ;
#108 = COORDINATED_UNIVERSAL_TIME_OFFSET ( 1, 0, .AHEAD. ) ;
#109 = DIRECTION ( 'NONE',  ( 0.0000000000000000000, 1.000000000000000000, 0.0000000000000000000 ) ) ;
#110 = PERSON_AND_ORGANIZATION ( #222, #82 ) ;
#111 = CIRCLE ( 'NONE', #219, 0.6191624327025946339 ) ;
#112 = CARTESIAN_POINT ( 'NONE',  ( 0.0000000000000000000, 0.0000000000000000000, 0.0000000000000000000 ) ) ;
#113 = FACE_OUTER_BOUND ( 'NONE', #88, .T. ) ;
#114 = FACE_OUTER_BOUND ( 'NONE', #180, .T. ) ;
#115 = CYLINDRICAL_SURFACE ( 'NONE', #94, 1.499999999999998890 ) ;
#116 = DIRECTION ( 'NONE',  ( 0.0000000000000000000, -1.000000000000000000, 0.0000000000000000000 ) ) ;
#117 = CC_DESIGN_PERSON_AND_ORGANIZATION_ASSIGNMENT ( #12, #177, ( #230 ) ) ;
#118 = CC_DESIGN_APPROVAL ( #80, ( #238 ) ) ;
#119 = ORIENTED_EDGE ( 'NONE', *, *, #143, .F. ) ;
#120 = EDGE_CURVE ( 'NONE', #53, #53, #41, .T. ) ;
#121 = LOCAL_TIME ( 9, 32, 30.00000000000000000, #256 ) ;
#122 = CARTESIAN_POINT ( 'NONE',  ( 1.745740669421566678E-13, 1.199999999999995515, 50.00000000000000000 ) ) ;
#123 = EDGE_LOOP ( 'NONE', ( #200 ) ) ;
#124 = COORDINATED_UNIVERSAL_TIME_OFFSET ( 1, 0, .AHEAD. ) ;
#125 = CARTESIAN_POINT ( 'NONE',  ( 2.444036937190193349E-14, 0.7634999999999990683, 7.000000000000000000 ) ) ;
#126 = AXIS2_PLACEMENT_3D ( 'NONE', #161, #189, #116 ) ;
#127 = AXIS2_PLACEMENT_3D ( 'NONE', #43, #296, #42 ) ;
#128 = EDGE_CURVE ( 'NONE', #81, #81, #8, .T. ) ;
#129 = EDGE_LOOP ( 'NONE', ( #198 ) ) ;
#130 = EDGE_LOOP ( 'NONE', ( #240 ) ) ;
#131 = VERTEX_POINT ( 'NONE', #38 ) ;
#132 = FACE_BOUND ( 'NONE', #223, .T. ) ;
#133 = FACE_BOUND ( 'NONE', #160, .T. ) ;
#134 = CIRCLE ( 'NONE', #153, 0.6903844939755806598 ) ;
#135 = DIRECTION ( 'NONE',  ( -3.491481338843133355E-15, 1.224646799147353207E-16, -1.000000000000000000 ) ) ;
#136 = ORIENTED_EDGE ( 'NONE', *, *, #97, .T. ) ;
#137 = VERTEX_POINT ( 'NONE', #235 ) ;
#138 = CC_DESIGN_PERSON_AND_ORGANIZATION_ASSIGNMENT ( #7, #170, ( #202 ) ) ;
#139 = DIRECTION ( 'NONE',  ( 3.491481338843133355E-15, -1.224646799147353207E-16, 1.000000000000000000 ) ) ;
#140 = DIRECTION ( 'NONE',  ( -3.491481338843133355E-15, 1.224646799147353207E-16, -1.000000000000000000 ) ) ;
#141 = CARTESIAN_POINT ( 'NONE',  ( 1.735266225405037467E-13, 1.499999999999995559, 49.70000000000000284 ) ) ;
#142 = EDGE_LOOP ( 'NONE', ( #63 ) ) ;
#143 = EDGE_CURVE ( 'NONE', #146, #146, #295, .T. ) ;
#144 = APPROVAL_STATUS ( 'not_yet_approved' ) ;
#145 = PERSON_AND_ORGANIZATION_ROLE ( 'classification_officer' ) ;
#146 = VERTEX_POINT ( 'NONE', #122 ) ;
#147 = ORIENTED_EDGE ( 'NONE', *, *, #105, .F. ) ;
#148 = CC_DESIGN_PERSON_AND_ORGANIZATION_ASSIGNMENT ( #110, #252, ( #257 ) ) ;
#149 = EDGE_LOOP ( 'NONE', ( #261 ) ) ;
#150 = DIRECTION ( 'NONE',  ( 4.275831445896958607E-31, 1.000000000000000000, 1.224646799147353207E-16 ) ) ;
#151 = EDGE_LOOP ( 'NONE', ( #59 ) ) ;
#152 = FACE_OUTER_BOUND ( 'NONE', #151, .T. ) ;
#153 = AXIS2_PLACEMENT_3D ( 'NONE', #96, #204, #274 ) ;
#154 = CARTESIAN_POINT ( 'NONE',  ( 1.735266225405037467E-13, -6.086494591762345225E-15, 49.70000000000000284 ) ) ;
#155 = VERTEX_POINT ( 'NONE', #248 ) ;
#156 = PLANE ( 'NONE',  #168 ) ;
#157 = ADVANCED_FACE ( 'NONE', ( #133, #237 ), #2, .T. ) ;
#158 = FACE_OUTER_BOUND ( 'NONE', #54, .T. ) ;
#159 = LOCAL_TIME ( 9, 32, 30.00000000000000000, #29 ) ;
#160 = EDGE_LOOP ( 'NONE', ( #178 ) ) ;
#161 = CARTESIAN_POINT ( 'NONE',  ( 6.961613685280282655E-14, -2.441805379777212443E-15, 19.93885405553088930 ) ) ;
#162 = UNCERTAINTY_MEASURE_WITH_UNIT (LENGTH_MEASURE( 1.000000000000000082E-05 ), #210, 'distance_accuracy_value', 'NONE');
#163 = DIRECTION ( 'NONE',  ( 3.491481338843133355E-15, -1.224646799147353207E-16, 1.000000000000000000 ) ) ;
#164 = APPROVAL ( #33, 'UNSPECIFIED' ) ;
#165 = ORIENTED_EDGE ( 'NONE', *, *, #229, .F. ) ;
#166 = MECHANICAL_CONTEXT ( 'NONE', #4, 'mechanical' ) ;
#167 =( GEOMETRIC_REPRESENTATION_CONTEXT ( 3 ) GLOBAL_UNCERTAINTY_ASSIGNED_CONTEXT ( ( #162 ) ) GLOBAL_UNIT_ASSIGNED_CONTEXT ( ( #210, #171, #303 ) ) REPRESENTATION_CONTEXT ( 'NONE', 'WORKASPACE' ) );
#168 = AXIS2_PLACEMENT_3D ( 'NONE', #262, #242, #150 ) ;
#169 = DATE_TIME_ROLE ( 'creation_date' ) ;
#170 = PERSON_AND_ORGANIZATION_ROLE ( 'creator' ) ;
#171 =( NAMED_UNIT ( * ) PLANE_ANGLE_UNIT ( ) SI_UNIT ( $, .RADIAN. ) );
#172 = CIRCLE ( 'NONE', #250, 0.6600000000000001421 ) ;
#173 = CLOSED_SHELL ( 'NONE', ( #46, #157, #206, #76 ) ) ;
#174 = PERSON_AND_ORGANIZATION ( #222, #82 ) ;
#175 = ORIENTED_EDGE ( 'NONE', *, *, #97, .F. ) ;
#176 = PLANE ( 'NONE',  #60 ) ;
#177 = PERSON_AND_ORGANIZATION_ROLE ( 'design_owner' ) ;
#178 = ORIENTED_EDGE ( 'NONE', *, *, #26, .F. ) ;
#179 = DIRECTION ( 'NONE',  ( 0.0000000000000000000, 1.000000000000000000, 0.0000000000000000000 ) ) ;
#180 = EDGE_LOOP ( 'NONE', ( #119 ) ) ;
#181 = AXIS2_PLACEMENT_3D ( 'NONE', #154, #221, #66 ) ;
#182 = CARTESIAN_POINT ( 'NONE',  ( 2.444036937190193349E-14, -8.572527594031473190E-16, 7.000000000000000000 ) ) ;
#183 = CARTESIAN_POINT ( 'NONE',  ( 8.728703347107831416E-16, -3.061616997868382402E-17, 0.2499999999999999445 ) ) ;
#184 = DIRECTION ( 'NONE',  ( 3.491481338843133355E-15, -1.224646799147353207E-16, 1.000000000000000000 ) ) ;
#185 = AXIS2_PLACEMENT_3D ( 'NONE', #298, #243, #77 ) ;
#186 = FACE_BOUND ( 'NONE', #123, .T. ) ;
#187 = APPROVAL ( #231, 'UNSPECIFIED' ) ;
#188 = VERTEX_POINT ( 'NONE', #277 ) ;
#189 = DIRECTION ( 'NONE',  ( 3.491481338843133355E-15, -1.224646799147353207E-16, 1.000000000000000000 ) ) ;
#190 = EDGE_LOOP ( 'NONE', ( #258 ) ) ;
#191 = SECURITY_CLASSIFICATION_LEVEL ( 'unclassified' ) ;
#192 = TOROIDAL_SURFACE ( 'NONE', #266, 2.660000000000000142, 2.000000000000000444 ) ;
#193 = EDGE_LOOP ( 'NONE', ( #136 ) ) ;
#194 = CALENDAR_DATE ( 2021, 30, 11 ) ;
#195 = AXIS2_PLACEMENT_3D ( 'NONE', #100, #300, #244 ) ;
#196 = DIRECTION ( 'NONE',  ( -3.491481338843133355E-15, 1.224646799147353207E-16, -1.000000000000000000 ) ) ;
#197 = CARTESIAN_POINT ( 'NONE',  ( 5.237222008264700033E-14, -1.734723475976807094E-15, 15.00000000000000000 ) ) ;
#198 = ORIENTED_EDGE ( 'NONE', *, *, #270, .F. ) ;
#199 = FACE_OUTER_BOUND ( 'NONE', #233, .T. ) ;
#200 = ORIENTED_EDGE ( 'NONE', *, *, #143, .T. ) ;
#201 = CARTESIAN_POINT ( 'NONE',  ( -1.323717099933906669E-31, 4.642974577512151745E-33, -3.791276456807604625E-17 ) ) ;
#202 = PRODUCT_DEFINITION ( 'UNKNOWN', '', #257, #50 ) ;
#203 = DIRECTION ( 'NONE',  ( 0.0000000000000000000, 1.000000000000000000, 0.0000000000000000000 ) ) ;
#204 = DIRECTION ( 'NONE',  ( -3.491481338843133355E-15, 1.224646799147353207E-16, -1.000000000000000000 ) ) ;
#205 = CYLINDRICAL_SURFACE ( 'NONE', #20, 0.6600000000000004752 ) ;
#206 = ADVANCED_FACE ( 'NONE', ( #152, #14 ), #70, .T. ) ;
#207 = FACE_OUTER_BOUND ( 'NONE', #259, .T. ) ;
#208 = AXIS2_PLACEMENT_3D ( 'NONE', #74, #163, #236 ) ;
#209 = CONICAL_SURFACE ( 'NONE', #84, 0.7634999999999999565, 0.5235987755982968173 ) ;
#210 =( LENGTH_UNIT ( ) NAMED_UNIT ( * ) SI_UNIT ( .MILLI., .METRE. ) );
#211 = DATE_AND_TIME ( #194, #40 ) ;
#212 = APPROVAL_PERSON_ORGANIZATION ( #79, #187, #10 ) ;
#213 = DATE_AND_TIME ( #282, #27 ) ;
#214 = ORIENTED_EDGE ( 'NONE', *, *, #293, .T. ) ;
#215 = PERSON_AND_ORGANIZATION ( #222, #82 ) ;
#216 = ADVANCED_FACE ( 'NONE', ( #113, #158 ), #205, .T. ) ;
#217 = DIRECTION ( 'NONE',  ( -3.491481338843133355E-15, 1.224646799147353207E-16, -1.000000000000000000 ) ) ;
#218 = CC_DESIGN_APPROVAL ( #164, ( #257 ) ) ;
#219 = AXIS2_PLACEMENT_3D ( 'NONE', #268, #85, #69 ) ;
#220 = FACE_OUTER_BOUND ( 'NONE', #73, .T. ) ;
#221 = DIRECTION ( 'NONE',  ( -3.491481338843133355E-15, 1.224646799147353207E-16, -1.000000000000000000 ) ) ;
#222 = PERSON ( 'UNSPECIFIED', 'UNSPECIFIED', 'UNSPECIFIED', ('UNSPECIFIED'), ('UNSPECIFIED'), ('UNSPECIFIED') ) ;
#223 = EDGE_LOOP ( 'NONE', ( #106 ) ) ;
#224 = PLANE ( 'NONE',  #5 ) ;
#225 = DIRECTION ( 'NONE',  ( 4.275831445896958607E-31, 1.000000000000000000, 1.224646799147353207E-16 ) ) ;
#226 = DIRECTION ( 'NONE',  ( -3.491481338843133355E-15, 1.224646799147353207E-16, -1.000000000000000000 ) ) ;
#227 = DIRECTION ( 'NONE',  ( -3.491481338843133355E-15, 1.224646799147353207E-16, -1.000000000000000000 ) ) ;
#228 = CC_DESIGN_SECURITY_CLASSIFICATION ( #238, ( #257 ) ) ;
#229 = EDGE_CURVE ( 'NONE', #232, #232, #286, .T. ) ;
#230 = PRODUCT ( '200105', '200105', '', ( #166 ) ) ;
#231 = APPROVAL_STATUS ( 'not_yet_approved' ) ;
#232 = VERTEX_POINT ( 'NONE', #287 ) ;
#233 = EDGE_LOOP ( 'NONE', ( #147 ) ) ;
#234 = ADVANCED_FACE ( 'NONE', ( #93, #207 ), #52, .T. ) ;
#235 = CARTESIAN_POINT ( 'NONE',  ( 6.961613685280282655E-14, 1.499999999999994005, 19.93885405553088930 ) ) ;
#236 = DIRECTION ( 'NONE',  ( -4.275831445896958607E-31, -1.000000000000000000, -1.224646799147353207E-16 ) ) ;
#237 = FACE_OUTER_BOUND ( 'NONE', #130, .T. ) ;
#238 = SECURITY_CLASSIFICATION ( '', '', #191 ) ;
#239 = CARTESIAN_POINT ( 'NONE',  ( 0.0000000000000000000, 0.0000000000000000000, 0.0000000000000000000 ) ) ;
#240 = ORIENTED_EDGE ( 'NONE', *, *, #128, .T. ) ;
#241 = CARTESIAN_POINT ( 'NONE',  ( 2.444036937190193349E-14, -8.572527594031473190E-16, 7.000000000000000000 ) ) ;
#242 = DIRECTION ( 'NONE',  ( -3.491481338843133355E-15, 1.224646799147353207E-16, -1.000000000000000000 ) ) ;
#243 = DIRECTION ( 'NONE',  ( 0.0000000000000000000, 0.0000000000000000000, 1.000000000000000000 ) ) ;
#244 = DIRECTION ( 'NONE',  ( 0.0000000000000000000, 1.000000000000000000, 0.0000000000000000000 ) ) ;
#245 = APPROVAL_PERSON_ORGANIZATION ( #174, #164, #86 ) ;
#246 = VERTEX_POINT ( 'NONE', #279 ) ;
#247 = ADVANCED_FACE ( 'NONE', ( #297, #186 ), #6, .T. ) ;
#248 = CARTESIAN_POINT ( 'NONE',  ( 5.358479882634335789E-14, 0.6903844939755787724, 15.34729635533384595 ) ) ;
#249 = EDGE_LOOP ( 'NONE', ( #175 ) ) ;
#250 = AXIS2_PLACEMENT_3D ( 'NONE', #48, #140, #22 ) ;
#251 = CIRCLE ( 'NONE', #278, 0.7634999999999999565 ) ;
#252 = PERSON_AND_ORGANIZATION_ROLE ( 'creator' ) ;
#253 = MANIFOLD_SOLID_BREP ( 'Corps-Déplacer/Copier1[1]', #47 ) ;
#254 = APPLICATION_PROTOCOL_DEFINITION ( 'international standard', 'config_control_design', 1994, #255 ) ;
#255 = APPLICATION_CONTEXT ( 'configuration controlled 3d designs of mechanical parts and assemblies' ) ;
#256 = COORDINATED_UNIVERSAL_TIME_OFFSET ( 1, 0, .AHEAD. ) ;
#257 = PRODUCT_DEFINITION_FORMATION_WITH_SPECIFIED_SOURCE ( 'ANY', '', #230, .NOT_KNOWN. ) ;
#258 = ORIENTED_EDGE ( 'NONE', *, *, #26, .T. ) ;
#259 = EDGE_LOOP ( 'NONE', ( #37 ) ) ;
#260 = APPROVAL_DATE_TIME ( #211, #80 ) ;
#261 = ORIENTED_EDGE ( 'NONE', *, *, #120, .F. ) ;
#262 = CARTESIAN_POINT ( 'NONE',  ( 1.745740669421566678E-13, 8.998558695971067645E-33, 50.00000000000000000 ) ) ;
#263 = APPROVAL_DATE_TIME ( #104, #164 ) ;
#264 = DIRECTION ( 'NONE',  ( -4.275831445896958607E-31, -1.000000000000000000, -1.224646799147353207E-16 ) ) ;
#265 = ORIENTED_EDGE ( 'NONE', *, *, #280, .F. ) ;
#266 = AXIS2_PLACEMENT_3D ( 'NONE', #197, #91, #225 ) ;
#267 = APPLICATION_PROTOCOL_DEFINITION ( 'international standard', 'config_control_design', 1994, #4 ) ;
#268 = CARTESIAN_POINT ( 'NONE',  ( -2.647434199867813338E-31, 9.285949155024303491E-33, -7.582552913615209249E-17 ) ) ;
#269 = DIRECTION ( 'NONE',  ( -3.491481338843133355E-15, 1.224646799147353207E-16, -1.000000000000000000 ) ) ;
#270 = EDGE_CURVE ( 'NONE', #137, #137, #71, .T. ) ;
#271 = LOCAL_TIME ( 9, 32, 30.00000000000000000, #283 ) ;
#272 = DIRECTION ( 'NONE',  ( -3.491481338843133355E-15, 1.224646799147353207E-16, -1.000000000000000000 ) ) ;
#273 = CC_DESIGN_DATE_AND_TIME_ASSIGNMENT ( #213, #103, ( #238 ) ) ;
#274 = DIRECTION ( 'NONE',  ( 0.0000000000000000000, 1.000000000000000000, 0.0000000000000000000 ) ) ;
#275 = CARTESIAN_POINT ( 'NONE',  ( 6.961613685280282655E-14, -2.441805379777212443E-15, 19.93885405553088930 ) ) ;
#276 = PLANE ( 'NONE',  #208 ) ;
#277 = CARTESIAN_POINT ( 'NONE',  ( 2.444036937190193349E-14, 0.7634999999999990683, 7.000000000000000000 ) ) ;
#278 = AXIS2_PLACEMENT_3D ( 'NONE', #89, #269, #203 ) ;
#279 = CARTESIAN_POINT ( 'NONE',  ( 0.0000000000000000000, 0.6191624327025946339, 0.0000000000000000000 ) ) ;
#280 = EDGE_CURVE ( 'NONE', #131, #131, #172, .T. ) ;
#281 = AXIS2_PLACEMENT_3D ( 'NONE', #183, #139, #39 ) ;
#282 = CALENDAR_DATE ( 2021, 30, 11 ) ;
#283 = COORDINATED_UNIVERSAL_TIME_OFFSET ( 1, 0, .AHEAD. ) ;
#284 = CC_DESIGN_PERSON_AND_ORGANIZATION_ASSIGNMENT ( #56, #145, ( #238 ) ) ;
#285 = CALENDAR_DATE ( 2021, 30, 11 ) ;
#286 = CIRCLE ( 'NONE', #195, 0.6600000000000008082 ) ;
#287 = CARTESIAN_POINT ( 'NONE',  ( 2.506627765991136237E-14, 0.6600000000000000311, 7.179267258583378108 ) ) ;
#288 = DIRECTION ( 'NONE',  ( 3.491481338843133355E-15, -1.224646799147353207E-16, 1.000000000000000000 ) ) ;
#289 = CALENDAR_DATE ( 2021, 30, 11 ) ;
#290 = FACE_OUTER_BOUND ( 'NONE', #190, .T. ) ;
#291 = ORIENTED_EDGE ( 'NONE', *, *, #120, .T. ) ;
#292 = DIRECTION ( 'NONE',  ( 4.275831445896958607E-31, 1.000000000000000000, 1.224646799147353454E-16 ) ) ;
#293 = EDGE_CURVE ( 'NONE', #155, #155, #134, .T. ) ;
#294 = FACE_OUTER_BOUND ( 'NONE', #193, .T. ) ;
#295 = CIRCLE ( 'NONE', #75, 1.200000000000001732 ) ;
#296 = DIRECTION ( 'NONE',  ( -3.491481338843133355E-15, 1.224646799147353207E-16, -1.000000000000000000 ) ) ;
#297 = FACE_OUTER_BOUND ( 'NONE', #249, .T. ) ;
#298 = CARTESIAN_POINT ( 'NONE',  ( 0.0000000000000000000, 0.0000000000000000000, 0.0000000000000000000 ) ) ;
#299 = APPROVAL_PERSON_ORGANIZATION ( #215, #80, #30 ) ;
#300 = DIRECTION ( 'NONE',  ( -3.491481338843133355E-15, 1.224646799147353207E-16, -1.000000000000000000 ) ) ;
#301 = FACE_OUTER_BOUND ( 'NONE', #25, .T. ) ;
#302 = CARTESIAN_POINT ( 'NONE',  ( 0.0000000000000000000, 0.0000000000000000000, 0.0000000000000000000 ) ) ;
#303 =( NAMED_UNIT ( * ) SI_UNIT ( $, .STERADIAN. ) SOLID_ANGLE_UNIT ( ) );
ENDSEC;
END-ISO-10303-21;
