ISO-10303-21;
HEADER;
FILE_DESCRIPTION (( 'STEP AP203' ),
    '1' );
FILE_NAME ('200104.step',
    '2021-11-30T08:32:29',
    ( '' ),
    ( '' ),
    'SwSTEP 2.0',
    'SolidWorks 2019',
    '' );
FILE_SCHEMA (( 'CONFIG_CONTROL_DESIGN' ));
ENDSEC;

DATA;
#1 = VERTEX_POINT ( 'NONE', #52 ) ;
#2 = AXIS2_PLACEMENT_3D ( 'NONE', #242, #13, #206 ) ;
#3 = DIRECTION ( 'NONE',  ( 0.0000000000000000000, 0.0000000000000000000, 1.000000000000000000 ) ) ;
#4 = AXIS2_PLACEMENT_3D ( 'NONE', #295, #301, #182 ) ;
#5 = CC_DESIGN_PERSON_AND_ORGANIZATION_ASSIGNMENT ( #192, #130, ( #187 ) ) ;
#6 = EDGE_LOOP ( 'NONE', ( #57 ) ) ;
#7 = DIRECTION ( 'NONE',  ( -3.491481338843133355E-15, 1.224646799147353207E-16, -1.000000000000000000 ) ) ;
#8 = AXIS2_PLACEMENT_3D ( 'NONE', #113, #93, #66 ) ;
#9 = DATE_AND_TIME ( #285, #277 ) ;
#10 = CARTESIAN_POINT ( 'NONE',  ( 2.444036937190193349E-14, 0.7584999999999990639, 7.000000000000000000 ) ) ;
#11 = DIRECTION ( 'NONE',  ( 0.0000000000000000000, 1.000000000000000000, 0.0000000000000000000 ) ) ;
#12 = APPROVAL_DATE_TIME ( #157, #213 ) ;
#13 = DIRECTION ( 'NONE',  ( 3.491481338843133355E-15, -1.224646799147353207E-16, 1.000000000000000000 ) ) ;
#14 = CARTESIAN_POINT ( 'NONE',  ( 2.444036937190193349E-14, 5.687838975745081895E-33, 7.000000000000000000 ) ) ;
#15 = CIRCLE ( 'NONE', #272, 0.6549999999999999156 ) ;
#16 = APPROVAL_ROLE ( '' ) ;
#17 = AXIS2_PLACEMENT_3D ( 'NONE', #161, #87, #248 ) ;
#18 = CARTESIAN_POINT ( 'NONE',  ( 5.358479882634336420E-14, -1.879501735712543696E-15, 15.34729635533384773 ) ) ;
#19 = CARTESIAN_POINT ( 'NONE',  ( 2.444036937190193349E-14, -8.572527594031473190E-16, 7.000000000000000000 ) ) ;
#20 = FACE_BOUND ( 'NONE', #173, .T. ) ;
#21 = FACE_OUTER_BOUND ( 'NONE', #118, .T. ) ;
#22 = CARTESIAN_POINT ( 'NONE',  ( 5.237222008264700033E-14, 0.6549999999999980282, 15.00000000000000000 ) ) ;
#23 = EDGE_LOOP ( 'NONE', ( #259 ) ) ;
#24 =( LENGTH_UNIT ( ) NAMED_UNIT ( * ) SI_UNIT ( .MILLI., .METRE. ) );
#25 = CIRCLE ( 'NONE', #210, 0.7584999999999999520 ) ;
#26 = CARTESIAN_POINT ( 'NONE',  ( 0.0000000000000000000, 0.0000000000000000000, 0.0000000000000000000 ) ) ;
#27 = APPROVAL ( #264, 'UNSPECIFIED' ) ;
#28 = CARTESIAN_POINT ( 'NONE',  ( 2.506627765991136237E-14, -8.792066668447528551E-16, 7.179267258583378108 ) ) ;
#29 = EDGE_LOOP ( 'NONE', ( #140 ) ) ;
#30 = CYLINDRICAL_SURFACE ( 'NONE', #293, 0.7584999999999995079 ) ;
#31 = EDGE_CURVE ( 'NONE', #40, #40, #25, .T. ) ;
#32 = FACE_OUTER_BOUND ( 'NONE', #169, .T. ) ;
#33 = CIRCLE ( 'NONE', #90, 0.6853844939755817656 ) ;
#34 = CYLINDRICAL_SURFACE ( 'NONE', #89, 0.6549999999999995826 ) ;
#35 = CARTESIAN_POINT ( 'NONE',  ( 5.237222008264700033E-14, -1.734723475976807094E-15, 15.00000000000000000 ) ) ;
#36 = DIRECTION ( 'NONE',  ( 3.491481338843133355E-15, -1.224646799147353207E-16, 1.000000000000000000 ) ) ;
#37 = FACE_OUTER_BOUND ( 'NONE', #162, .T. ) ;
#38 = CIRCLE ( 'NONE', #129, 1.500000000000001554 ) ;
#39 = AXIS2_PLACEMENT_3D ( 'NONE', #300, #222, #159 ) ;
#40 = VERTEX_POINT ( 'NONE', #128 ) ;
#41 = DIRECTION ( 'NONE',  ( -5.078259576498980580E-31, -1.000000000000000000, -1.429402996025716360E-16 ) ) ;
#42 = CC_DESIGN_SECURITY_CLASSIFICATION ( #224, ( #189 ) ) ;
#43 = DIRECTION ( 'NONE',  ( 0.0000000000000000000, 1.000000000000000000, 0.0000000000000000000 ) ) ;
#44 = DIRECTION ( 'NONE',  ( 0.0000000000000000000, 1.000000000000000000, 0.0000000000000000000 ) ) ;
#45 = CARTESIAN_POINT ( 'NONE',  ( 1.735266225405037467E-13, 1.499999999999995559, 49.70000000000000284 ) ) ;
#46 = DIRECTION ( 'NONE',  ( -3.491481338843133355E-15, 1.224646799147353207E-16, -1.000000000000000000 ) ) ;
#47 = EDGE_LOOP ( 'NONE', ( #239 ) ) ;
#48 = CARTESIAN_POINT ( 'NONE',  ( 5.358479882634336420E-14, 0.6853844939755798782, 15.34729635533384773 ) ) ;
#49 = DESIGN_CONTEXT ( 'detailed design', #108, 'design' ) ;
#50 = AXIS2_PLACEMENT_3D ( 'NONE', #28, #278, #61 ) ;
#51 = PERSON_AND_ORGANIZATION ( #79, #265 ) ;
#52 = CARTESIAN_POINT ( 'NONE',  ( 8.728703347107833388E-16, 0.7584999999999990639, 0.2500000000000000000 ) ) ;
#53 = CONICAL_SURFACE ( 'NONE', #186, 0.7584999999999999520, 0.5235987755983031455 ) ;
#54 = ADVANCED_FACE ( 'NONE', ( #204, #37 ), #135, .T. ) ;
#55 = AXIS2_PLACEMENT_3D ( 'NONE', #26, #3, #143 ) ;
#56 = EDGE_CURVE ( 'NONE', #288, #288, #38, .T. ) ;
#57 = ORIENTED_EDGE ( 'NONE', *, *, #218, .F. ) ;
#58 = FACE_OUTER_BOUND ( 'NONE', #72, .T. ) ;
#59 = ORIENTED_EDGE ( 'NONE', *, *, #56, .F. ) ;
#60 =( GEOMETRIC_REPRESENTATION_CONTEXT ( 3 ) GLOBAL_UNCERTAINTY_ASSIGNED_CONTEXT ( ( #211 ) ) GLOBAL_UNIT_ASSIGNED_CONTEXT ( ( #24, #303, #252 ) ) REPRESENTATION_CONTEXT ( 'NONE', 'WORKASPACE' ) );
#61 = DIRECTION ( 'NONE',  ( 0.0000000000000000000, 1.000000000000000000, 0.0000000000000000000 ) ) ;
#62 = DATE_TIME_ROLE ( 'creation_date' ) ;
#63 = EDGE_CURVE ( 'NONE', #112, #112, #302, .T. ) ;
#64 = CARTESIAN_POINT ( 'NONE',  ( 6.971514272600541088E-14, 1.499999999999994005, 19.96721046462898030 ) ) ;
#65 = PERSON_AND_ORGANIZATION ( #79, #265 ) ;
#66 = DIRECTION ( 'NONE',  ( 0.0000000000000000000, 1.000000000000000000, 0.0000000000000000000 ) ) ;
#67 = COORDINATED_UNIVERSAL_TIME_OFFSET ( 1, 0, .AHEAD. ) ;
#68 = VERTEX_POINT ( 'NONE', #155 ) ;
#69 = PERSON_AND_ORGANIZATION ( #79, #265 ) ;
#70 = ORIENTED_EDGE ( 'NONE', *, *, #99, .F. ) ;
#71 = MECHANICAL_CONTEXT ( 'NONE', #233, 'mechanical' ) ;
#72 = EDGE_LOOP ( 'NONE', ( #96 ) ) ;
#73 = SHAPE_DEFINITION_REPRESENTATION ( #172, #230 ) ;
#74 = VERTEX_POINT ( 'NONE', #48 ) ;
#75 = MANIFOLD_SOLID_BREP ( 'Corps-Déplacer/Copier1[2]', #254 ) ;
#76 = EDGE_LOOP ( 'NONE', ( #147 ) ) ;
#77 = AXIS2_PLACEMENT_3D ( 'NONE', #291, #296, #41 ) ;
#78 = EDGE_CURVE ( 'NONE', #199, #199, #141, .T. ) ;
#79 = PERSON ( 'UNSPECIFIED', 'UNSPECIFIED', 'UNSPECIFIED', ('UNSPECIFIED'), ('UNSPECIFIED'), ('UNSPECIFIED') ) ;
#80 = CC_DESIGN_PERSON_AND_ORGANIZATION_ASSIGNMENT ( #51, #280, ( #289 ) ) ;
#81 = FACE_OUTER_BOUND ( 'NONE', #6, .T. ) ;
#82 = AXIS2_PLACEMENT_3D ( 'NONE', #292, #273, #154 ) ;
#83 = APPLICATION_PROTOCOL_DEFINITION ( 'international standard', 'config_control_design', 1994, #108 ) ;
#84 = EDGE_CURVE ( 'NONE', #263, #263, #209, .T. ) ;
#85 = CALENDAR_DATE ( 2021, 30, 11 ) ;
#86 = COORDINATED_UNIVERSAL_TIME_OFFSET ( 1, 0, .AHEAD. ) ;
#87 = DIRECTION ( 'NONE',  ( -3.491481338843133355E-15, 1.224646799147353207E-16, -1.000000000000000000 ) ) ;
#88 = APPROVAL_ROLE ( '' ) ;
#89 = AXIS2_PLACEMENT_3D ( 'NONE', #190, #126, #235 ) ;
#90 = AXIS2_PLACEMENT_3D ( 'NONE', #18, #117, #137 ) ;
#91 = VERTEX_POINT ( 'NONE', #10 ) ;
#92 = DATE_AND_TIME ( #109, #152 ) ;
#93 = DIRECTION ( 'NONE',  ( -3.491481338843133355E-15, 1.224646799147353207E-16, -1.000000000000000000 ) ) ;
#94 = PRODUCT_RELATED_PRODUCT_CATEGORY ( 'detail', '', ( #289 ) ) ;
#95 = DIRECTION ( 'NONE',  ( -3.491481338843133355E-15, 1.224646799147353207E-16, -1.000000000000000000 ) ) ;
#96 = ORIENTED_EDGE ( 'NONE', *, *, #212, .T. ) ;
#97 = CONICAL_SURFACE ( 'NONE', #180, 1.200000000000001732, 0.7853981633974453924 ) ;
#98 = LOCAL_TIME ( 9, 32, 29.00000000000000000, #86 ) ;
#99 = EDGE_CURVE ( 'NONE', #91, #91, #175, .T. ) ;
#100 = CIRCLE ( 'NONE', #120, 0.7584999999999990639 ) ;
#101 = AXIS2_PLACEMENT_3D ( 'NONE', #134, #198, #11 ) ;
#102 = CARTESIAN_POINT ( 'NONE',  ( 8.728703347107829444E-16, -3.061616997868381785E-17, 0.2499999999999998890 ) ) ;
#103 = DIRECTION ( 'NONE',  ( 5.078259576498980580E-31, 1.000000000000000000, 1.429402996025716360E-16 ) ) ;
#104 = CC_DESIGN_DATE_AND_TIME_ASSIGNMENT ( #92, #62, ( #187 ) ) ;
#105 = APPROVAL_DATE_TIME ( #202, #262 ) ;
#106 = DIRECTION ( 'NONE',  ( 0.0000000000000000000, 1.000000000000000000, 0.0000000000000000000 ) ) ;
#107 = ORIENTED_EDGE ( 'NONE', *, *, #31, .T. ) ;
#108 = APPLICATION_CONTEXT ( 'configuration controlled 3d designs of mechanical parts and assemblies' ) ;
#109 = CALENDAR_DATE ( 2021, 30, 11 ) ;
#110 = ADVANCED_FACE ( 'NONE', ( #21, #245 ), #97, .T. ) ;
#111 = PERSON_AND_ORGANIZATION ( #79, #265 ) ;
#112 = VERTEX_POINT ( 'NONE', #179 ) ;
#113 = CARTESIAN_POINT ( 'NONE',  ( 1.745740669421566678E-13, -6.123233995736766085E-15, 50.00000000000000000 ) ) ;
#114 = DIRECTION ( 'NONE',  ( 3.491481338843133355E-15, -1.224646799147353207E-16, 1.000000000000000000 ) ) ;
#115 = APPROVAL_PERSON_ORGANIZATION ( #111, #27, #153 ) ;
#116 = CALENDAR_DATE ( 2021, 30, 11 ) ;
#117 = DIRECTION ( 'NONE',  ( -3.491481338843133355E-15, 1.224646799147353207E-16, -1.000000000000000000 ) ) ;
#118 = EDGE_LOOP ( 'NONE', ( #59 ) ) ;
#119 = APPROVAL_PERSON_ORGANIZATION ( #283, #262, #16 ) ;
#120 = AXIS2_PLACEMENT_3D ( 'NONE', #102, #193, #103 ) ;
#121 = EDGE_LOOP ( 'NONE', ( #122 ) ) ;
#122 = ORIENTED_EDGE ( 'NONE', *, *, #31, .F. ) ;
#123 = FACE_OUTER_BOUND ( 'NONE', #76, .T. ) ;
#124 = ADVANCED_FACE ( 'NONE', ( #227 ), #131, .F. ) ;
#125 = APPROVAL_DATE_TIME ( #9, #27 ) ;
#126 = DIRECTION ( 'NONE',  ( -3.491481338843133355E-15, 1.224646799147353207E-16, -1.000000000000000000 ) ) ;
#127 = EDGE_CURVE ( 'NONE', #68, #68, #170, .T. ) ;
#128 = CARTESIAN_POINT ( 'NONE',  ( 2.444036937190193349E-14, 0.7584999999999990639, 7.000000000000000000 ) ) ;
#129 = AXIS2_PLACEMENT_3D ( 'NONE', #243, #95, #185 ) ;
#130 = PERSON_AND_ORGANIZATION_ROLE ( 'creator' ) ;
#131 = PLANE ( 'NONE',  #241 ) ;
#132 = LOCAL_TIME ( 9, 32, 29.00000000000000000, #223 ) ;
#133 = ADVANCED_FACE ( 'NONE', ( #58, #144 ), #34, .T. ) ;
#134 = CARTESIAN_POINT ( 'NONE',  ( 6.971514272600541088E-14, -2.445278038340941626E-15, 19.96721046462898030 ) ) ;
#135 = CONICAL_SURFACE ( 'NONE', #4, 1.499999999999996447, 0.1745329251994259534 ) ;
#136 = ORIENTED_EDGE ( 'NONE', *, *, #276, .F. ) ;
#137 = DIRECTION ( 'NONE',  ( 0.0000000000000000000, 1.000000000000000000, 0.0000000000000000000 ) ) ;
#138 = CARTESIAN_POINT ( 'NONE',  ( 1.745740669421566678E-13, -6.123233995736766085E-15, 50.00000000000000000 ) ) ;
#139 = EDGE_LOOP ( 'NONE', ( #275 ) ) ;
#140 = ORIENTED_EDGE ( 'NONE', *, *, #78, .T. ) ;
#141 = CIRCLE ( 'NONE', #8, 1.200000000000001732 ) ;
#142 = APPLICATION_PROTOCOL_DEFINITION ( 'international standard', 'config_control_design', 1994, #233 ) ;
#143 = DIRECTION ( 'NONE',  ( 1.000000000000000000, 0.0000000000000000000, 0.0000000000000000000 ) ) ;
#144 = FACE_OUTER_BOUND ( 'NONE', #274, .T. ) ;
#145 = ORIENTED_EDGE ( 'NONE', *, *, #99, .T. ) ;
#146 = DIRECTION ( 'NONE',  ( 4.275831445896957731E-31, 1.000000000000000000, 1.224646799147353207E-16 ) ) ;
#147 = ORIENTED_EDGE ( 'NONE', *, *, #212, .F. ) ;
#148 = DIRECTION ( 'NONE',  ( -4.275831445896958607E-31, -1.000000000000000000, -1.224646799147353207E-16 ) ) ;
#149 = CC_DESIGN_APPROVAL ( #27, ( #189 ) ) ;
#150 = SECURITY_CLASSIFICATION_LEVEL ( 'unclassified' ) ;
#151 = DIRECTION ( 'NONE',  ( -3.491481338843133355E-15, 1.224646799147353207E-16, -1.000000000000000000 ) ) ;
#152 = LOCAL_TIME ( 9, 32, 29.00000000000000000, #260 ) ;
#153 = APPROVAL_ROLE ( '' ) ;
#154 = DIRECTION ( 'NONE',  ( 0.0000000000000000000, 1.000000000000000000, 0.0000000000000000000 ) ) ;
#155 = CARTESIAN_POINT ( 'NONE',  ( 2.506627765991136237E-14, 0.6549999999999984723, 7.179267258583378108 ) ) ;
#156 = ADVANCED_FACE ( 'NONE', ( #32 ), #281, .F. ) ;
#157 = DATE_AND_TIME ( #174, #132 ) ;
#158 = FACE_BOUND ( 'NONE', #139, .T. ) ;
#159 = DIRECTION ( 'NONE',  ( 4.275831445896958607E-31, 1.000000000000000000, 1.224646799147353207E-16 ) ) ;
#160 = ORIENTED_EDGE ( 'NONE', *, *, #127, .F. ) ;
#161 = CARTESIAN_POINT ( 'NONE',  ( 1.745740669421566678E-13, 8.998558695971067645E-33, 50.00000000000000000 ) ) ;
#162 = EDGE_LOOP ( 'NONE', ( #205 ) ) ;
#163 = DIRECTION ( 'NONE',  ( -4.275831445896958607E-31, -1.000000000000000000, -1.224646799147353207E-16 ) ) ;
#164 = CC_DESIGN_PERSON_AND_ORGANIZATION_ASSIGNMENT ( #181, #287, ( #189 ) ) ;
#165 = VERTEX_POINT ( 'NONE', #22 ) ;
#166 = FACE_OUTER_BOUND ( 'NONE', #47, .T. ) ;
#167 = ORIENTED_EDGE ( 'NONE', *, *, #78, .F. ) ;
#168 = CARTESIAN_POINT ( 'NONE',  ( -1.313027521319164312E-31, 4.605480582945605716E-33, -3.760660286828920862E-17 ) ) ;
#169 = EDGE_LOOP ( 'NONE', ( #298 ) ) ;
#170 = CIRCLE ( 'NONE', #50, 0.6549999999999993605 ) ;
#171 = CC_DESIGN_APPROVAL ( #213, ( #224 ) ) ;
#172 = PRODUCT_DEFINITION_SHAPE ( 'NONE', 'NONE',  #187 ) ;
#173 = EDGE_LOOP ( 'NONE', ( #253 ) ) ;
#174 = CALENDAR_DATE ( 2021, 30, 11 ) ;
#175 = CIRCLE ( 'NONE', #82, 0.7584999999999999520 ) ;
#176 = DATE_AND_TIME ( #85, #98 ) ;
#177 = ADVANCED_FACE ( 'NONE', ( #81, #216 ), #30, .T. ) ;
#178 = CARTESIAN_POINT ( 'NONE',  ( 1.745740669421566678E-13, 1.199999999999995515, 50.00000000000000000 ) ) ;
#179 = CARTESIAN_POINT ( 'NONE',  ( 0.0000000000000000000, 0.6141624327025946295, 0.0000000000000000000 ) ) ;
#180 = AXIS2_PLACEMENT_3D ( 'NONE', #138, #46, #207 ) ;
#181 = PERSON_AND_ORGANIZATION ( #79, #265 ) ;
#182 = DIRECTION ( 'NONE',  ( 0.0000000000000000000, -1.000000000000000000, 0.0000000000000000000 ) ) ;
#183 = EDGE_LOOP ( 'NONE', ( #232 ) ) ;
#184 = PLANE ( 'NONE',  #17 ) ;
#185 = DIRECTION ( 'NONE',  ( 0.0000000000000000000, 1.000000000000000000, 0.0000000000000000000 ) ) ;
#186 = AXIS2_PLACEMENT_3D ( 'NONE', #221, #271, #43 ) ;
#187 = PRODUCT_DEFINITION ( 'UNKNOWN', '', #189, #49 ) ;
#188 = APPROVAL_STATUS ( 'not_yet_approved' ) ;
#189 = PRODUCT_DEFINITION_FORMATION_WITH_SPECIFIED_SOURCE ( 'ANY', '', #289, .NOT_KNOWN. ) ;
#190 = CARTESIAN_POINT ( 'NONE',  ( 0.0000000000000000000, 0.0000000000000000000, 0.0000000000000000000 ) ) ;
#191 = FACE_OUTER_BOUND ( 'NONE', #236, .T. ) ;
#192 = PERSON_AND_ORGANIZATION ( #79, #265 ) ;
#193 = DIRECTION ( 'NONE',  ( -3.491481338843133355E-15, 1.224646799147353207E-16, -1.000000000000000000 ) ) ;
#194 = CONICAL_SURFACE ( 'NONE', #77, 0.7584999999999990639, 0.5235987755982931535 ) ;
#195 = CC_DESIGN_DATE_AND_TIME_ASSIGNMENT ( #176, #261, ( #224 ) ) ;
#196 = PLANE ( 'NONE',  #2 ) ;
#197 = FACE_OUTER_BOUND ( 'NONE', #183, .T. ) ;
#198 = DIRECTION ( 'NONE',  ( -3.491481338843133355E-15, 1.224646799147353207E-16, -1.000000000000000000 ) ) ;
#199 = VERTEX_POINT ( 'NONE', #178 ) ;
#200 = AXIS2_PLACEMENT_3D ( 'NONE', #35, #282, #146 ) ;
#201 = AXIS2_PLACEMENT_3D ( 'NONE', #203, #151, #246 ) ;
#202 = DATE_AND_TIME ( #116, #279 ) ;
#203 = CARTESIAN_POINT ( 'NONE',  ( 0.0000000000000000000, 0.0000000000000000000, 0.0000000000000000000 ) ) ;
#204 = FACE_BOUND ( 'NONE', #234, .T. ) ;
#205 = ORIENTED_EDGE ( 'NONE', *, *, #84, .T. ) ;
#206 = DIRECTION ( 'NONE',  ( -4.275831445896958607E-31, -1.000000000000000000, -1.224646799147353207E-16 ) ) ;
#207 = DIRECTION ( 'NONE',  ( 0.0000000000000000000, 1.000000000000000000, 0.0000000000000000000 ) ) ;
#208 = ADVANCED_FACE ( 'NONE', ( #123, #166 ), #251, .F. ) ;
#209 = CIRCLE ( 'NONE', #101, 1.499999999999996447 ) ;
#210 = AXIS2_PLACEMENT_3D ( 'NONE', #19, #266, #44 ) ;
#211 = UNCERTAINTY_MEASURE_WITH_UNIT (LENGTH_MEASURE( 1.000000000000000082E-05 ), #24, 'distance_accuracy_value', 'NONE');
#212 = EDGE_CURVE ( 'NONE', #165, #165, #15, .T. ) ;
#213 = APPROVAL ( #290, 'UNSPECIFIED' ) ;
#214 = DIRECTION ( 'NONE',  ( 4.275831445896958607E-31, 1.000000000000000000, 1.224646799147353207E-16 ) ) ;
#215 = EDGE_LOOP ( 'NONE', ( #107 ) ) ;
#216 = FACE_OUTER_BOUND ( 'NONE', #215, .T. ) ;
#217 = DIRECTION ( 'NONE',  ( -3.491481338843133355E-15, 1.224646799147353207E-16, -1.000000000000000000 ) ) ;
#218 = EDGE_CURVE ( 'NONE', #1, #1, #100, .T. ) ;
#219 = AXIS2_PLACEMENT_3D ( 'NONE', #168, #36, #148 ) ;
#220 = PERSON_AND_ORGANIZATION_ROLE ( 'classification_officer' ) ;
#221 = CARTESIAN_POINT ( 'NONE',  ( 2.444036937190193349E-14, -8.572527594031473190E-16, 7.000000000000000000 ) ) ;
#222 = DIRECTION ( 'NONE',  ( -3.491481338843133355E-15, 1.224646799147353207E-16, -1.000000000000000000 ) ) ;
#223 = COORDINATED_UNIVERSAL_TIME_OFFSET ( 1, 0, .AHEAD. ) ;
#224 = SECURITY_CLASSIFICATION ( '', '', #150 ) ;
#225 = FACE_OUTER_BOUND ( 'NONE', #121, .T. ) ;
#226 = EDGE_LOOP ( 'NONE', ( #145 ) ) ;
#227 = FACE_OUTER_BOUND ( 'NONE', #226, .T. ) ;
#228 = ADVANCED_FACE ( 'NONE', ( #191, #284 ), #240, .T. ) ;
#229 = ORIENTED_EDGE ( 'NONE', *, *, #84, .F. ) ;
#230 = ADVANCED_BREP_SHAPE_REPRESENTATION ( '200104', ( #257, #75, #55 ), #60 ) ;
#231 = ADVANCED_FACE ( 'NONE', ( #158, #197 ), #194, .T. ) ;
#232 = ORIENTED_EDGE ( 'NONE', *, *, #218, .T. ) ;
#233 = APPLICATION_CONTEXT ( 'configuration controlled 3d designs of mechanical parts and assemblies' ) ;
#234 = EDGE_LOOP ( 'NONE', ( #136 ) ) ;
#235 = DIRECTION ( 'NONE',  ( 4.275831445896958607E-31, 1.000000000000000000, 1.224646799147353207E-16 ) ) ;
#236 = EDGE_LOOP ( 'NONE', ( #229 ) ) ;
#237 = CARTESIAN_POINT ( 'NONE',  ( 5.237222008264700033E-14, -1.836970198721029589E-15, 15.00000000000000000 ) ) ;
#238 = CC_DESIGN_APPROVAL ( #262, ( #187 ) ) ;
#239 = ORIENTED_EDGE ( 'NONE', *, *, #276, .T. ) ;
#240 = CYLINDRICAL_SURFACE ( 'NONE', #201, 1.499999999999998890 ) ;
#241 = AXIS2_PLACEMENT_3D ( 'NONE', #14, #114, #163 ) ;
#242 = CARTESIAN_POINT ( 'NONE',  ( 2.444036937190193349E-14, 5.687838975745081895E-33, 7.000000000000000000 ) ) ;
#243 = CARTESIAN_POINT ( 'NONE',  ( 1.735266225405037467E-13, -6.086494591762345225E-15, 49.70000000000000284 ) ) ;
#244 = COORDINATED_UNIVERSAL_TIME_OFFSET ( 1, 0, .AHEAD. ) ;
#245 = FACE_BOUND ( 'NONE', #29, .T. ) ;
#246 = DIRECTION ( 'NONE',  ( 4.275831445896958607E-31, 1.000000000000000000, 1.224646799147353454E-16 ) ) ;
#247 = CC_DESIGN_PERSON_AND_ORGANIZATION_ASSIGNMENT ( #269, #220, ( #224 ) ) ;
#248 = DIRECTION ( 'NONE',  ( 4.275831445896958607E-31, 1.000000000000000000, 1.224646799147353207E-16 ) ) ;
#249 = EDGE_LOOP ( 'NONE', ( #70 ) ) ;
#250 = EDGE_LOOP ( 'NONE', ( #167 ) ) ;
#251 = TOROIDAL_SURFACE ( 'NONE', #200, 2.654999999999999805, 2.000000000000000000 ) ;
#252 =( NAMED_UNIT ( * ) SI_UNIT ( $, .STERADIAN. ) SOLID_ANGLE_UNIT ( ) );
#253 = ORIENTED_EDGE ( 'NONE', *, *, #127, .T. ) ;
#254 = CLOSED_SHELL ( 'NONE', ( #156, #231, #177, #286 ) ) ;
#255 = CARTESIAN_POINT ( 'NONE',  ( 0.0000000000000000000, 0.0000000000000000000, 0.0000000000000000000 ) ) ;
#256 = ADVANCED_FACE ( 'NONE', ( #20, #268 ), #53, .T. ) ;
#257 = MANIFOLD_SOLID_BREP ( 'Corps-Déplacer/Copier1[1]', #267 ) ;
#258 = APPROVAL_PERSON_ORGANIZATION ( #69, #213, #88 ) ;
#259 = ORIENTED_EDGE ( 'NONE', *, *, #56, .T. ) ;
#260 = COORDINATED_UNIVERSAL_TIME_OFFSET ( 1, 0, .AHEAD. ) ;
#261 = DATE_TIME_ROLE ( 'classification_date' ) ;
#262 = APPROVAL ( #188, 'UNSPECIFIED' ) ;
#263 = VERTEX_POINT ( 'NONE', #64 ) ;
#264 = APPROVAL_STATUS ( 'not_yet_approved' ) ;
#265 = ORGANIZATION ( 'UNSPECIFIED', 'UNSPECIFIED', '' ) ;
#266 = DIRECTION ( 'NONE',  ( -3.491481338843133355E-15, 1.224646799147353207E-16, -1.000000000000000000 ) ) ;
#267 = CLOSED_SHELL ( 'NONE', ( #124, #256, #133, #208, #54, #228, #110, #297 ) ) ;
#268 = FACE_OUTER_BOUND ( 'NONE', #249, .T. ) ;
#269 = PERSON_AND_ORGANIZATION ( #79, #265 ) ;
#270 = CC_DESIGN_PERSON_AND_ORGANIZATION_ASSIGNMENT ( #65, #294, ( #189 ) ) ;
#271 = DIRECTION ( 'NONE',  ( -3.491481338843133355E-15, 1.224646799147353207E-16, -1.000000000000000000 ) ) ;
#272 = AXIS2_PLACEMENT_3D ( 'NONE', #237, #7, #106 ) ;
#273 = DIRECTION ( 'NONE',  ( -3.491481338843133355E-15, 1.224646799147353207E-16, -1.000000000000000000 ) ) ;
#274 = EDGE_LOOP ( 'NONE', ( #160 ) ) ;
#275 = ORIENTED_EDGE ( 'NONE', *, *, #63, .F. ) ;
#276 = EDGE_CURVE ( 'NONE', #74, #74, #33, .T. ) ;
#277 = LOCAL_TIME ( 9, 32, 29.00000000000000000, #244 ) ;
#278 = DIRECTION ( 'NONE',  ( -3.491481338843133355E-15, 1.224646799147353207E-16, -1.000000000000000000 ) ) ;
#279 = LOCAL_TIME ( 9, 32, 29.00000000000000000, #67 ) ;
#280 = PERSON_AND_ORGANIZATION_ROLE ( 'design_owner' ) ;
#281 = PLANE ( 'NONE',  #219 ) ;
#282 = DIRECTION ( 'NONE',  ( -3.491481338843133355E-15, 1.224646799147353207E-16, -1.000000000000000000 ) ) ;
#283 = PERSON_AND_ORGANIZATION ( #79, #265 ) ;
#284 = FACE_OUTER_BOUND ( 'NONE', #23, .T. ) ;
#285 = CALENDAR_DATE ( 2021, 30, 11 ) ;
#286 = ADVANCED_FACE ( 'NONE', ( #225 ), #196, .T. ) ;
#287 = PERSON_AND_ORGANIZATION_ROLE ( 'design_supplier' ) ;
#288 = VERTEX_POINT ( 'NONE', #45 ) ;
#289 = PRODUCT ( '200104', '200104', '', ( #71 ) ) ;
#290 = APPROVAL_STATUS ( 'not_yet_approved' ) ;
#291 = CARTESIAN_POINT ( 'NONE',  ( 8.728703347107829444E-16, -3.061616997868381785E-17, 0.2499999999999998890 ) ) ;
#292 = CARTESIAN_POINT ( 'NONE',  ( 2.444036937190193349E-14, -8.572527594031473190E-16, 7.000000000000000000 ) ) ;
#293 = AXIS2_PLACEMENT_3D ( 'NONE', #255, #217, #214 ) ;
#294 = PERSON_AND_ORGANIZATION_ROLE ( 'creator' ) ;
#295 = CARTESIAN_POINT ( 'NONE',  ( 6.971514272600541088E-14, -2.445278038340941626E-15, 19.96721046462898030 ) ) ;
#296 = DIRECTION ( 'NONE',  ( 3.491481338843133355E-15, -1.224646799147353207E-16, 1.000000000000000000 ) ) ;
#297 = ADVANCED_FACE ( 'NONE', ( #299 ), #184, .F. ) ;
#298 = ORIENTED_EDGE ( 'NONE', *, *, #63, .T. ) ;
#299 = FACE_OUTER_BOUND ( 'NONE', #250, .T. ) ;
#300 = CARTESIAN_POINT ( 'NONE',  ( -2.626055042638328624E-31, 9.210961165891211431E-33, -7.521320573657841725E-17 ) ) ;
#301 = DIRECTION ( 'NONE',  ( 3.491481338843133355E-15, -1.224646799147353207E-16, 1.000000000000000000 ) ) ;
#302 = CIRCLE ( 'NONE', #39, 0.6141624327025946295 ) ;
#303 =( NAMED_UNIT ( * ) PLANE_ANGLE_UNIT ( ) SI_UNIT ( $, .RADIAN. ) );
ENDSEC;
END-ISO-10303-21;
