ISO-10303-21;
HEADER;
FILE_DESCRIPTION (( 'STEP AP203' ),
    '1' );
FILE_NAME ('200103.step',
    '2021-11-30T06:44:50',
    ( '' ),
    ( '' ),
    'SwSTEP 2.0',
    'SolidWorks 2019',
    '' );
FILE_SCHEMA (( 'CONFIG_CONTROL_DESIGN' ));
ENDSEC;

DATA;
#1 = CARTESIAN_POINT ( 'NONE',  ( 1.892735826383161356E-31, 1.109162432702589296, 5.421010862427522170E-17 ) ) ;
#2 = FACE_OUTER_BOUND ( 'NONE', #256, .T. ) ;
#3 = DIRECTION ( 'NONE',  ( 0.0000000000000000000, -1.000000000000000000, 0.0000000000000000000 ) ) ;
#4 = VERTEX_POINT ( 'NONE', #100 ) ;
#5 = DIRECTION ( 'NONE',  ( -4.275831445896958607E-31, -1.000000000000000000, -1.224646799147353207E-16 ) ) ;
#6 = CIRCLE ( 'NONE', #22, 1.100000000000000089 ) ;
#7 = PERSON_AND_ORGANIZATION_ROLE ( 'creator' ) ;
#8 = CARTESIAN_POINT ( 'NONE',  ( 3.584309283006850024E-14, 1.099999999999997868, 10.26586979896181973 ) ) ;
#9 = DIRECTION ( 'NONE',  ( -3.491481338843133355E-15, 1.224646799147353207E-16, -1.000000000000000000 ) ) ;
#10 = DIRECTION ( 'NONE',  ( 3.491481338843133355E-15, -1.224646799147353207E-16, 1.000000000000000000 ) ) ;
#11 = APPROVAL_PERSON_ORGANIZATION ( #126, #189, #40 ) ;
#12 = EDGE_CURVE ( 'NONE', #274, #274, #83, .T. ) ;
#13 = DIRECTION ( 'NONE',  ( 0.0000000000000000000, 1.000000000000000000, 0.0000000000000000000 ) ) ;
#14 = AXIS2_PLACEMENT_3D ( 'NONE', #138, #157, #206 ) ;
#15 = CALENDAR_DATE ( 2021, 30, 11 ) ;
#16 = FACE_OUTER_BOUND ( 'NONE', #47, .T. ) ;
#17 = ORIENTED_EDGE ( 'NONE', *, *, #12, .F. ) ;
#18 = MECHANICAL_CONTEXT ( 'NONE', #250, 'mechanical' ) ;
#19 = FACE_OUTER_BOUND ( 'NONE', #117, .T. ) ;
#20 = MANIFOLD_SOLID_BREP ( 'Corps-Déplacer/Copier1[1]', #48 ) ;
#21 = DESIGN_CONTEXT ( 'detailed design', #228, 'design' ) ;
#22 = AXIS2_PLACEMENT_3D ( 'NONE', #33, #198, #58 ) ;
#23 = CONICAL_SURFACE ( 'NONE', #166, 1.499999999999996669, 0.1745329251994265918 ) ;
#24 = ORIENTED_EDGE ( 'NONE', *, *, #247, .T. ) ;
#25 = FACE_BOUND ( 'NONE', #273, .T. ) ;
#26 = DIRECTION ( 'NONE',  ( 4.275831445896958607E-31, 1.000000000000000000, 1.224646799147353454E-16 ) ) ;
#27 = COORDINATED_UNIVERSAL_TIME_OFFSET ( 1, 0, .AHEAD. ) ;
#28 = CARTESIAN_POINT ( 'NONE',  ( 1.735266225405037467E-13, 1.499999999999995559, 49.70000000000000284 ) ) ;
#29 = APPROVAL_ROLE ( '' ) ;
#30 =( GEOMETRIC_REPRESENTATION_CONTEXT ( 3 ) GLOBAL_UNCERTAINTY_ASSIGNED_CONTEXT ( ( #225 ) ) GLOBAL_UNIT_ASSIGNED_CONTEXT ( ( #53, #195, #279 ) ) REPRESENTATION_CONTEXT ( 'NONE', 'WORKASPACE' ) );
#31 = DATE_TIME_ROLE ( 'classification_date' ) ;
#32 = VERTEX_POINT ( 'NONE', #239 ) ;
#33 = CARTESIAN_POINT ( 'NONE',  ( 6.982962677686266711E-14, -2.449293598294706513E-15, 20.00000000000000000 ) ) ;
#34 = CLOSED_SHELL ( 'NONE', ( #257, #295, #52, #137 ) ) ;
#35 = AXIS2_PLACEMENT_3D ( 'NONE', #261, #237, #26 ) ;
#36 = ADVANCED_FACE ( 'NONE', ( #211, #72 ), #23, .T. ) ;
#37 = CIRCLE ( 'NONE', #209, 1.253499999999993841 ) ;
#38 = DIRECTION ( 'NONE',  ( -3.491481338843133355E-15, 1.224646799147353207E-16, -1.000000000000000000 ) ) ;
#39 = EDGE_LOOP ( 'NONE', ( #294 ) ) ;
#40 = APPROVAL_ROLE ( '' ) ;
#41 = ORIENTED_EDGE ( 'NONE', *, *, #224, .T. ) ;
#42 = CALENDAR_DATE ( 2021, 30, 11 ) ;
#43 = AXIS2_PLACEMENT_3D ( 'NONE', #118, #188, #190 ) ;
#44 = ORIENTED_EDGE ( 'NONE', *, *, #292, .T. ) ;
#45 = APPROVAL_STATUS ( 'not_yet_approved' ) ;
#46 = ORIENTED_EDGE ( 'NONE', *, *, #270, .T. ) ;
#47 = EDGE_LOOP ( 'NONE', ( #186 ) ) ;
#48 = CLOSED_SHELL ( 'NONE', ( #204, #146, #199, #133, #36, #127, #230, #155 ) ) ;
#49 = APPROVAL_PERSON_ORGANIZATION ( #238, #121, #91 ) ;
#50 = EDGE_LOOP ( 'NONE', ( #41 ) ) ;
#51 = APPLICATION_PROTOCOL_DEFINITION ( 'international standard', 'config_control_design', 1994, #228 ) ;
#52 = ADVANCED_FACE ( 'NONE', ( #301, #303 ), #141, .T. ) ;
#53 =( LENGTH_UNIT ( ) NAMED_UNIT ( * ) SI_UNIT ( .MILLI., .METRE. ) );
#54 = DIRECTION ( 'NONE',  ( 0.0000000000000000000, 1.000000000000000000, 0.0000000000000000000 ) ) ;
#55 = APPROVAL_DATE_TIME ( #265, #79 ) ;
#56 = DIRECTION ( 'NONE',  ( 0.0000000000000000000, 1.000000000000000000, 0.0000000000000000000 ) ) ;
#57 = AXIS2_PLACEMENT_3D ( 'NONE', #191, #102, #54 ) ;
#58 = DIRECTION ( 'NONE',  ( 0.0000000000000000000, 1.000000000000000000, 0.0000000000000000000 ) ) ;
#59 = AXIS2_PLACEMENT_3D ( 'NONE', #200, #66, #13 ) ;
#60 = PERSON ( 'UNSPECIFIED', 'UNSPECIFIED', 'UNSPECIFIED', ('UNSPECIFIED'), ('UNSPECIFIED'), ('UNSPECIFIED') ) ;
#61 = EDGE_LOOP ( 'NONE', ( #92 ) ) ;
#62 = CARTESIAN_POINT ( 'NONE',  ( 3.584309283006850024E-14, -1.257206458976207263E-15, 10.26586979896181973 ) ) ;
#63 = PRODUCT_RELATED_PRODUCT_CATEGORY ( 'detail', '', ( #226 ) ) ;
#64 = EDGE_LOOP ( 'NONE', ( #207 ) ) ;
#65 = LOCAL_TIME ( 7, 44, 50.00000000000000000, #27 ) ;
#66 = DIRECTION ( 'NONE',  ( -3.491481338843133355E-15, 1.224646799147353207E-16, -1.000000000000000000 ) ) ;
#67 = ORIENTED_EDGE ( 'NONE', *, *, #241, .T. ) ;
#68 = EDGE_CURVE ( 'NONE', #272, #272, #37, .T. ) ;
#69 = DIRECTION ( 'NONE',  ( 4.609325754417021113E-31, 1.000000000000000000, 1.297409859376357915E-16 ) ) ;
#70 = VERTEX_POINT ( 'NONE', #218 ) ;
#71 = DIRECTION ( 'NONE',  ( 4.275831445896958607E-31, 1.000000000000000000, 1.224646799147353207E-16 ) ) ;
#72 = FACE_OUTER_BOUND ( 'NONE', #177, .T. ) ;
#73 = PERSON_AND_ORGANIZATION_ROLE ( 'design_owner' ) ;
#74 = VERTEX_POINT ( 'NONE', #28 ) ;
#75 = FACE_OUTER_BOUND ( 'NONE', #114, .T. ) ;
#76 = CARTESIAN_POINT ( 'NONE',  ( 8.728703347107835360E-16, 1.253499999999993841, 0.2500000000000000555 ) ) ;
#77 = PERSON_AND_ORGANIZATION ( #60, #179 ) ;
#78 = AXIS2_PLACEMENT_3D ( 'NONE', #235, #99, #97 ) ;
#79 = APPROVAL ( #220, 'UNSPECIFIED' ) ;
#80 = EDGE_LOOP ( 'NONE', ( #253 ) ) ;
#81 = APPROVAL_DATE_TIME ( #86, #189 ) ;
#82 = CARTESIAN_POINT ( 'NONE',  ( 7.104220552055901835E-14, 1.130384493975577831, 20.34729635533384595 ) ) ;
#83 = CIRCLE ( 'NONE', #43, 1.130384493975580273 ) ;
#84 = AXIS2_PLACEMENT_3D ( 'NONE', #232, #243, #5 ) ;
#85 = ORIENTED_EDGE ( 'NONE', *, *, #12, .T. ) ;
#86 = DATE_AND_TIME ( #42, #185 ) ;
#87 = DIRECTION ( 'NONE',  ( -3.491481338843133355E-15, 1.224646799147353207E-16, -1.000000000000000000 ) ) ;
#88 = EDGE_LOOP ( 'NONE', ( #258 ) ) ;
#89 = PRODUCT_DEFINITION_SHAPE ( 'NONE', 'NONE',  #174 ) ;
#90 = EDGE_LOOP ( 'NONE', ( #153 ) ) ;
#91 = APPROVAL_ROLE ( '' ) ;
#92 = ORIENTED_EDGE ( 'NONE', *, *, #291, .F. ) ;
#93 = DATE_AND_TIME ( #116, #65 ) ;
#94 = LOCAL_TIME ( 7, 44, 50.00000000000000000, #156 ) ;
#95 = PLANE ( 'NONE',  #136 ) ;
#96 = FACE_BOUND ( 'NONE', #135, .T. ) ;
#97 = DIRECTION ( 'NONE',  ( 0.0000000000000000000, 1.000000000000000000, 0.0000000000000000000 ) ) ;
#98 = DIRECTION ( 'NONE',  ( 3.491481338843133355E-15, -1.224646799147353207E-16, 1.000000000000000000 ) ) ;
#99 = DIRECTION ( 'NONE',  ( -3.491481338843133355E-15, 1.224646799147353207E-16, -1.000000000000000000 ) ) ;
#100 = CARTESIAN_POINT ( 'NONE',  ( 7.836102670519129938E-14, 1.499999999999994005, 22.44349005489899795 ) ) ;
#101 = AXIS2_PLACEMENT_3D ( 'NONE', #172, #131, #149 ) ;
#102 = DIRECTION ( 'NONE',  ( -3.491481338843133355E-15, 1.224646799147353207E-16, -1.000000000000000000 ) ) ;
#103 = SECURITY_CLASSIFICATION_LEVEL ( 'unclassified' ) ;
#104 = COORDINATED_UNIVERSAL_TIME_OFFSET ( 1, 0, .AHEAD. ) ;
#105 = CC_DESIGN_PERSON_AND_ORGANIZATION_ASSIGNMENT ( #171, #167, ( #260 ) ) ;
#106 = CC_DESIGN_DATE_AND_TIME_ASSIGNMENT ( #183, #276, ( #174 ) ) ;
#107 = CC_DESIGN_APPROVAL ( #121, ( #174 ) ) ;
#108 = CARTESIAN_POINT ( 'NONE',  ( 8.728703347107829444E-16, -3.061616997868381785E-17, 0.2499999999999998890 ) ) ;
#109 = DIRECTION ( 'NONE',  ( -4.275831445896958607E-31, -1.000000000000000000, -1.224646799147353207E-16 ) ) ;
#110 = CC_DESIGN_PERSON_AND_ORGANIZATION_ASSIGNMENT ( #214, #278, ( #174 ) ) ;
#111 = ORIENTED_EDGE ( 'NONE', *, *, #115, .T. ) ;
#112 = COORDINATED_UNIVERSAL_TIME_OFFSET ( 1, 0, .AHEAD. ) ;
#113 = CIRCLE ( 'NONE', #78, 1.200000000000001732 ) ;
#114 = EDGE_LOOP ( 'NONE', ( #180 ) ) ;
#115 = EDGE_CURVE ( 'NONE', #284, #284, #113, .T. ) ;
#116 = CALENDAR_DATE ( 2021, 30, 11 ) ;
#117 = EDGE_LOOP ( 'NONE', ( #298 ) ) ;
#118 = CARTESIAN_POINT ( 'NONE',  ( 7.104220552055901835E-14, -2.491825135286219831E-15, 20.34729635533384595 ) ) ;
#119 = DIRECTION ( 'NONE',  ( -3.491481338843133355E-15, 1.224646799147353207E-16, -1.000000000000000000 ) ) ;
#120 = CARTESIAN_POINT ( 'NONE',  ( 7.836102670519129938E-14, -2.748534825742751230E-15, 22.44349005489899795 ) ) ;
#121 = APPROVAL ( #45, 'UNSPECIFIED' ) ;
#122 = APPROVAL_DATE_TIME ( #93, #121 ) ;
#123 = PERSON_AND_ORGANIZATION ( #60, #179 ) ;
#124 = AXIS2_PLACEMENT_3D ( 'NONE', #236, #119, #125 ) ;
#125 = DIRECTION ( 'NONE',  ( 0.0000000000000000000, 1.000000000000000000, 0.0000000000000000000 ) ) ;
#126 = PERSON_AND_ORGANIZATION ( #60, #179 ) ;
#127 = ADVANCED_FACE ( 'NONE', ( #213, #75 ), #165, .T. ) ;
#128 = MANIFOLD_SOLID_BREP ( 'Corps-Déplacer/Copier1[2]', #34 ) ;
#129 = PLANE ( 'NONE',  #130 ) ;
#130 = AXIS2_PLACEMENT_3D ( 'NONE', #222, #10, #109 ) ;
#131 = DIRECTION ( 'NONE',  ( -3.491481338843133355E-15, 1.224646799147353207E-16, -1.000000000000000000 ) ) ;
#132 = CIRCLE ( 'NONE', #234, 1.109162432702589296 ) ;
#133 = ADVANCED_FACE ( 'NONE', ( #192, #286 ), #217, .F. ) ;
#134 = DIRECTION ( 'NONE',  ( 3.491481338843133355E-15, -1.224646799147353207E-16, 1.000000000000000000 ) ) ;
#135 = EDGE_LOOP ( 'NONE', ( #46 ) ) ;
#136 = AXIS2_PLACEMENT_3D ( 'NONE', #140, #212, #170 ) ;
#137 = ADVANCED_FACE ( 'NONE', ( #266 ), #169, .T. ) ;
#138 = CARTESIAN_POINT ( 'NONE',  ( 0.0000000000000000000, 0.0000000000000000000, 0.0000000000000000000 ) ) ;
#139 = DIRECTION ( 'NONE',  ( -3.491481338843133355E-15, 1.224646799147353207E-16, -1.000000000000000000 ) ) ;
#140 = CARTESIAN_POINT ( 'NONE',  ( 1.745740669421566678E-13, 8.998558695971067645E-33, 50.00000000000000000 ) ) ;
#141 = CYLINDRICAL_SURFACE ( 'NONE', #202, 1.253499999999994508 ) ;
#142 = AXIS2_PLACEMENT_3D ( 'NONE', #296, #139, #154 ) ;
#143 = DIRECTION ( 'NONE',  ( 4.275831445896958607E-31, 1.000000000000000000, 1.224646799147353207E-16 ) ) ;
#144 = DIRECTION ( 'NONE',  ( -3.491481338843133355E-15, 1.224646799147353207E-16, -1.000000000000000000 ) ) ;
#145 = PERSON_AND_ORGANIZATION_ROLE ( 'design_supplier' ) ;
#146 = ADVANCED_FACE ( 'NONE', ( #19, #96 ), #249, .T. ) ;
#147 = PRODUCT_DEFINITION_FORMATION_WITH_SPECIFIED_SOURCE ( 'ANY', '', #226, .NOT_KNOWN. ) ;
#148 = CIRCLE ( 'NONE', #142, 1.499999999999996669 ) ;
#149 = DIRECTION ( 'NONE',  ( 4.275831445896958607E-31, 1.000000000000000000, 1.224646799147353207E-16 ) ) ;
#150 = CC_DESIGN_DATE_AND_TIME_ASSIGNMENT ( #244, #31, ( #260 ) ) ;
#151 = AXIS2_PLACEMENT_3D ( 'NONE', #288, #144, #71 ) ;
#152 = AXIS2_PLACEMENT_3D ( 'NONE', #219, #246, #56 ) ;
#153 = ORIENTED_EDGE ( 'NONE', *, *, #247, .F. ) ;
#154 = DIRECTION ( 'NONE',  ( 0.0000000000000000000, 1.000000000000000000, 0.0000000000000000000 ) ) ;
#155 = ADVANCED_FACE ( 'NONE', ( #299 ), #95, .F. ) ;
#156 = COORDINATED_UNIVERSAL_TIME_OFFSET ( 1, 0, .AHEAD. ) ;
#157 = DIRECTION ( 'NONE',  ( 0.0000000000000000000, 0.0000000000000000000, 1.000000000000000000 ) ) ;
#158 = CIRCLE ( 'NONE', #277, 1.099999999999999201 ) ;
#159 = PERSON_AND_ORGANIZATION ( #60, #179 ) ;
#160 = DIRECTION ( 'NONE',  ( 0.0000000000000000000, 1.000000000000000000, 0.0000000000000000000 ) ) ;
#161 = FACE_OUTER_BOUND ( 'NONE', #80, .T. ) ;
#162 = DIRECTION ( 'NONE',  ( -3.491481338843133355E-15, 1.224646799147353207E-16, -1.000000000000000000 ) ) ;
#163 = VERTEX_POINT ( 'NONE', #215 ) ;
#164 = PLANE ( 'NONE',  #193 ) ;
#165 = CYLINDRICAL_SURFACE ( 'NONE', #35, 1.499999999999999112 ) ;
#166 = AXIS2_PLACEMENT_3D ( 'NONE', #120, #168, #3 ) ;
#167 = PERSON_AND_ORGANIZATION_ROLE ( 'classification_officer' ) ;
#168 = DIRECTION ( 'NONE',  ( 3.491481338843133355E-15, -1.224646799147353207E-16, 1.000000000000000000 ) ) ;
#169 = PLANE ( 'NONE',  #84 ) ;
#170 = DIRECTION ( 'NONE',  ( 4.275831445896958607E-31, 1.000000000000000000, 1.224646799147353207E-16 ) ) ;
#171 = PERSON_AND_ORGANIZATION ( #60, #179 ) ;
#172 = CARTESIAN_POINT ( 'NONE',  ( 6.982962677686266711E-14, -2.602085213965210642E-15, 20.00000000000000000 ) ) ;
#173 = CC_DESIGN_SECURITY_CLASSIFICATION ( #260, ( #147 ) ) ;
#174 = PRODUCT_DEFINITION ( 'UNKNOWN', '', #147, #21 ) ;
#175 = CIRCLE ( 'NONE', #59, 1.500000000000001554 ) ;
#176 = CC_DESIGN_PERSON_AND_ORGANIZATION_ASSIGNMENT ( #233, #73, ( #226 ) ) ;
#177 = EDGE_LOOP ( 'NONE', ( #44 ) ) ;
#178 = DIRECTION ( 'NONE',  ( -4.609325754417021113E-31, -1.000000000000000000, -1.297409859376357915E-16 ) ) ;
#179 = ORGANIZATION ( 'UNSPECIFIED', 'UNSPECIFIED', '' ) ;
#180 = ORIENTED_EDGE ( 'NONE', *, *, #291, .T. ) ;
#181 = SHAPE_DEFINITION_REPRESENTATION ( #89, #184 ) ;
#182 = DIRECTION ( 'NONE',  ( 4.275831445896958607E-31, 1.000000000000000000, 1.224646799147353207E-16 ) ) ;
#183 = DATE_AND_TIME ( #15, #94 ) ;
#184 = ADVANCED_BREP_SHAPE_REPRESENTATION ( '200103', ( #20, #128, #14 ), #30 ) ;
#185 = LOCAL_TIME ( 7, 44, 50.00000000000000000, #112 ) ;
#186 = ORIENTED_EDGE ( 'NONE', *, *, #68, .T. ) ;
#187 = DIRECTION ( 'NONE',  ( -4.275831445896958607E-31, -1.000000000000000000, -1.224646799147353207E-16 ) ) ;
#188 = DIRECTION ( 'NONE',  ( -3.491481338843133355E-15, 1.224646799147353207E-16, -1.000000000000000000 ) ) ;
#189 = APPROVAL ( #293, 'UNSPECIFIED' ) ;
#190 = DIRECTION ( 'NONE',  ( 0.0000000000000000000, 1.000000000000000000, 0.0000000000000000000 ) ) ;
#191 = CARTESIAN_POINT ( 'NONE',  ( 1.745740669421566678E-13, -6.123233995736766085E-15, 50.00000000000000000 ) ) ;
#192 = FACE_OUTER_BOUND ( 'NONE', #90, .T. ) ;
#193 = AXIS2_PLACEMENT_3D ( 'NONE', #264, #98, #187 ) ;
#194 = CALENDAR_DATE ( 2021, 30, 11 ) ;
#195 =( NAMED_UNIT ( * ) PLANE_ANGLE_UNIT ( ) SI_UNIT ( $, .RADIAN. ) );
#196 = CALENDAR_DATE ( 2021, 30, 11 ) ;
#197 = CONICAL_SURFACE ( 'NONE', #245, 1.253499999999993841, 0.5235987755982927094 ) ;
#198 = DIRECTION ( 'NONE',  ( -3.491481338843133355E-15, 1.224646799147353207E-16, -1.000000000000000000 ) ) ;
#199 = ADVANCED_FACE ( 'NONE', ( #161, #280 ), #216, .T. ) ;
#200 = CARTESIAN_POINT ( 'NONE',  ( 1.735266225405037467E-13, -6.086494591762345225E-15, 49.70000000000000284 ) ) ;
#201 = EDGE_LOOP ( 'NONE', ( #24 ) ) ;
#202 = AXIS2_PLACEMENT_3D ( 'NONE', #281, #162, #143 ) ;
#203 = EDGE_LOOP ( 'NONE', ( #85 ) ) ;
#204 = ADVANCED_FACE ( 'NONE', ( #2 ), #164, .F. ) ;
#205 = EDGE_LOOP ( 'NONE', ( #259 ) ) ;
#206 = DIRECTION ( 'NONE',  ( 1.000000000000000000, 0.0000000000000000000, 0.0000000000000000000 ) ) ;
#207 = ORIENTED_EDGE ( 'NONE', *, *, #68, .F. ) ;
#208 = CC_DESIGN_PERSON_AND_ORGANIZATION_ASSIGNMENT ( #77, #145, ( #147 ) ) ;
#209 = AXIS2_PLACEMENT_3D ( 'NONE', #283, #263, #69 ) ;
#210 = ORIENTED_EDGE ( 'NONE', *, *, #115, .F. ) ;
#211 = FACE_BOUND ( 'NONE', #229, .T. ) ;
#212 = DIRECTION ( 'NONE',  ( -3.491481338843133355E-15, 1.224646799147353207E-16, -1.000000000000000000 ) ) ;
#213 = FACE_OUTER_BOUND ( 'NONE', #252, .T. ) ;
#214 = PERSON_AND_ORGANIZATION ( #60, #179 ) ;
#215 = CARTESIAN_POINT ( 'NONE',  ( 3.491481338843133355E-14, 1.253499999999993841, 10.00000000000000000 ) ) ;
#216 = CYLINDRICAL_SURFACE ( 'NONE', #151, 1.099999999999999645 ) ;
#217 = TOROIDAL_SURFACE ( 'NONE', #101, 3.100000000000000533, 2.000000000000000888 ) ;
#218 = CARTESIAN_POINT ( 'NONE',  ( 6.982962677686266711E-14, 1.099999999999997646, 20.00000000000000000 ) ) ;
#219 = CARTESIAN_POINT ( 'NONE',  ( 3.491481338843133355E-14, -1.224646799147353256E-15, 10.00000000000000000 ) ) ;
#220 = APPROVAL_STATUS ( 'not_yet_approved' ) ;
#221 = LOCAL_TIME ( 7, 44, 50.00000000000000000, #104 ) ;
#222 = CARTESIAN_POINT ( 'NONE',  ( -1.424927890987069652E-31, 4.997974244626215042E-33, -4.081155683504826369E-17 ) ) ;
#223 = CC_DESIGN_APPROVAL ( #189, ( #260 ) ) ;
#224 = EDGE_CURVE ( 'NONE', #163, #163, #285, .T. ) ;
#225 = UNCERTAINTY_MEASURE_WITH_UNIT (LENGTH_MEASURE( 1.000000000000000082E-05 ), #53, 'distance_accuracy_value', 'NONE');
#226 = PRODUCT ( '200103', '200103', '', ( #18 ) ) ;
#227 = CC_DESIGN_APPROVAL ( #79, ( #147 ) ) ;
#228 = APPLICATION_CONTEXT ( 'configuration controlled 3d designs of mechanical parts and assemblies' ) ;
#229 = EDGE_LOOP ( 'NONE', ( #17 ) ) ;
#230 = ADVANCED_FACE ( 'NONE', ( #240, #25 ), #268, .T. ) ;
#231 = APPLICATION_PROTOCOL_DEFINITION ( 'international standard', 'config_control_design', 1994, #250 ) ;
#232 = CARTESIAN_POINT ( 'NONE',  ( 3.491481338843133355E-14, 9.399744437833137463E-33, 10.00000000000000000 ) ) ;
#233 = PERSON_AND_ORGANIZATION ( #60, #179 ) ;
#234 = AXIS2_PLACEMENT_3D ( 'NONE', #255, #38, #182 ) ;
#235 = CARTESIAN_POINT ( 'NONE',  ( 1.745740669421566678E-13, -6.123233995736766085E-15, 50.00000000000000000 ) ) ;
#236 = CARTESIAN_POINT ( 'NONE',  ( 3.491481338843133355E-14, -1.224646799147353256E-15, 10.00000000000000000 ) ) ;
#237 = DIRECTION ( 'NONE',  ( -3.491481338843133355E-15, 1.224646799147353207E-16, -1.000000000000000000 ) ) ;
#238 = PERSON_AND_ORGANIZATION ( #60, #179 ) ;
#239 = CARTESIAN_POINT ( 'NONE',  ( 3.491481338843133355E-14, 1.253499999999993841, 10.00000000000000000 ) ) ;
#240 = FACE_OUTER_BOUND ( 'NONE', #61, .T. ) ;
#241 = EDGE_CURVE ( 'NONE', #32, #32, #290, .T. ) ;
#242 = VERTEX_POINT ( 'NONE', #8 ) ;
#243 = DIRECTION ( 'NONE',  ( 3.491481338843133355E-15, -1.224646799147353207E-16, 1.000000000000000000 ) ) ;
#244 = DATE_AND_TIME ( #194, #271 ) ;
#245 = AXIS2_PLACEMENT_3D ( 'NONE', #108, #134, #178 ) ;
#246 = DIRECTION ( 'NONE',  ( -3.491481338843133355E-15, 1.224646799147353207E-16, -1.000000000000000000 ) ) ;
#247 = EDGE_CURVE ( 'NONE', #70, #70, #6, .T. ) ;
#248 = FACE_OUTER_BOUND ( 'NONE', #88, .T. ) ;
#249 = CONICAL_SURFACE ( 'NONE', #251, 1.099999999999999201, 0.5235987755982935976 ) ;
#250 = APPLICATION_CONTEXT ( 'configuration controlled 3d designs of mechanical parts and assemblies' ) ;
#251 = AXIS2_PLACEMENT_3D ( 'NONE', #302, #9, #282 ) ;
#252 = EDGE_LOOP ( 'NONE', ( #297 ) ) ;
#253 = ORIENTED_EDGE ( 'NONE', *, *, #270, .F. ) ;
#254 = FACE_BOUND ( 'NONE', #205, .T. ) ;
#255 = CARTESIAN_POINT ( 'NONE',  ( -2.849855781974139305E-31, 9.995948489252430084E-33, -8.162311367009652738E-17 ) ) ;
#256 = EDGE_LOOP ( 'NONE', ( #67 ) ) ;
#257 = ADVANCED_FACE ( 'NONE', ( #248 ), #129, .F. ) ;
#258 = ORIENTED_EDGE ( 'NONE', *, *, #289, .T. ) ;
#259 = ORIENTED_EDGE ( 'NONE', *, *, #289, .F. ) ;
#260 = SECURITY_CLASSIFICATION ( '', '', #103 ) ;
#261 = CARTESIAN_POINT ( 'NONE',  ( 0.0000000000000000000, 0.0000000000000000000, 0.0000000000000000000 ) ) ;
#262 = COORDINATED_UNIVERSAL_TIME_OFFSET ( 1, 0, .AHEAD. ) ;
#263 = DIRECTION ( 'NONE',  ( -3.491481338843133355E-15, 1.224646799147353207E-16, -1.000000000000000000 ) ) ;
#264 = CARTESIAN_POINT ( 'NONE',  ( 3.491481338843133355E-14, 9.399744437833137463E-33, 10.00000000000000000 ) ) ;
#265 = DATE_AND_TIME ( #196, #221 ) ;
#266 = FACE_OUTER_BOUND ( 'NONE', #39, .T. ) ;
#267 = CARTESIAN_POINT ( 'NONE',  ( 1.745740669421566678E-13, 1.199999999999995515, 50.00000000000000000 ) ) ;
#268 = CONICAL_SURFACE ( 'NONE', #57, 1.200000000000001732, 0.7853981633974453924 ) ;
#269 = CC_DESIGN_PERSON_AND_ORGANIZATION_ASSIGNMENT ( #123, #7, ( #147 ) ) ;
#270 = EDGE_CURVE ( 'NONE', #242, #242, #158, .T. ) ;
#271 = LOCAL_TIME ( 7, 44, 50.00000000000000000, #262 ) ;
#272 = VERTEX_POINT ( 'NONE', #76 ) ;
#273 = EDGE_LOOP ( 'NONE', ( #111 ) ) ;
#274 = VERTEX_POINT ( 'NONE', #82 ) ;
#275 = EDGE_LOOP ( 'NONE', ( #210 ) ) ;
#276 = DATE_TIME_ROLE ( 'creation_date' ) ;
#277 = AXIS2_PLACEMENT_3D ( 'NONE', #62, #87, #160 ) ;
#278 = PERSON_AND_ORGANIZATION_ROLE ( 'creator' ) ;
#279 =( NAMED_UNIT ( * ) SI_UNIT ( $, .STERADIAN. ) SOLID_ANGLE_UNIT ( ) );
#280 = FACE_OUTER_BOUND ( 'NONE', #201, .T. ) ;
#281 = CARTESIAN_POINT ( 'NONE',  ( 0.0000000000000000000, 0.0000000000000000000, 0.0000000000000000000 ) ) ;
#282 = DIRECTION ( 'NONE',  ( 0.0000000000000000000, 1.000000000000000000, 0.0000000000000000000 ) ) ;
#283 = CARTESIAN_POINT ( 'NONE',  ( 8.728703347107829444E-16, -3.061616997868381785E-17, 0.2499999999999998890 ) ) ;
#284 = VERTEX_POINT ( 'NONE', #267 ) ;
#285 = CIRCLE ( 'NONE', #124, 1.253499999999995174 ) ;
#286 = FACE_OUTER_BOUND ( 'NONE', #203, .T. ) ;
#287 = VERTEX_POINT ( 'NONE', #1 ) ;
#288 = CARTESIAN_POINT ( 'NONE',  ( 0.0000000000000000000, 0.0000000000000000000, 0.0000000000000000000 ) ) ;
#289 = EDGE_CURVE ( 'NONE', #287, #287, #132, .T. ) ;
#290 = CIRCLE ( 'NONE', #152, 1.253499999999995174 ) ;
#291 = EDGE_CURVE ( 'NONE', #74, #74, #175, .T. ) ;
#292 = EDGE_CURVE ( 'NONE', #4, #4, #148, .T. ) ;
#293 = APPROVAL_STATUS ( 'not_yet_approved' ) ;
#294 = ORIENTED_EDGE ( 'NONE', *, *, #224, .F. ) ;
#295 = ADVANCED_FACE ( 'NONE', ( #254, #16 ), #197, .T. ) ;
#296 = CARTESIAN_POINT ( 'NONE',  ( 7.836102670519129938E-14, -2.748534825742751230E-15, 22.44349005489899795 ) ) ;
#297 = ORIENTED_EDGE ( 'NONE', *, *, #292, .F. ) ;
#298 = ORIENTED_EDGE ( 'NONE', *, *, #241, .F. ) ;
#299 = FACE_OUTER_BOUND ( 'NONE', #275, .T. ) ;
#300 = APPROVAL_PERSON_ORGANIZATION ( #159, #79, #29 ) ;
#301 = FACE_OUTER_BOUND ( 'NONE', #64, .T. ) ;
#302 = CARTESIAN_POINT ( 'NONE',  ( 3.584309283006850024E-14, -1.257206458976207263E-15, 10.26586979896181973 ) ) ;
#303 = FACE_OUTER_BOUND ( 'NONE', #50, .T. ) ;
ENDSEC;
END-ISO-10303-21;
