ISO-10303-21;
HEADER;
FILE_DESCRIPTION (( 'STEP AP203' ),
    '1' );
FILE_NAME ('200102.step',
    '2021-11-30T06:44:49',
    ( '' ),
    ( '' ),
    'SwSTEP 2.0',
    'SolidWorks 2019',
    '' );
FILE_SCHEMA (( 'CONFIG_CONTROL_DESIGN' ));
ENDSEC;

DATA;
#1 = ORIENTED_EDGE ( 'NONE', *, *, #42, .F. ) ;
#2 = DIRECTION ( 'NONE',  ( -3.491481338843133355E-15, 1.224646799147353207E-16, -1.000000000000000000 ) ) ;
#3 =( LENGTH_UNIT ( ) NAMED_UNIT ( * ) SI_UNIT ( .MILLI., .METRE. ) );
#4 = EDGE_LOOP ( 'NONE', ( #209 ) ) ;
#5 = LOCAL_TIME ( 7, 44, 49.00000000000000000, #108 ) ;
#6 = CARTESIAN_POINT ( 'NONE',  ( 7.632835768763412300E-14, 1.499999999999994005, 21.86131050980348078 ) ) ;
#7 = FACE_OUTER_BOUND ( 'NONE', #29, .T. ) ;
#8 =( NAMED_UNIT ( * ) SI_UNIT ( $, .STERADIAN. ) SOLID_ANGLE_UNIT ( ) );
#9 = CC_DESIGN_PERSON_AND_ORGANIZATION_ASSIGNMENT ( #251, #51, ( #291 ) ) ;
#10 = ORIENTED_EDGE ( 'NONE', *, *, #247, .T. ) ;
#11 = PERSON_AND_ORGANIZATION ( #137, #114 ) ;
#12 = DIRECTION ( 'NONE',  ( 4.275831445896958607E-31, 1.000000000000000000, 1.224646799147352961E-16 ) ) ;
#13 = AXIS2_PLACEMENT_3D ( 'NONE', #48, #113, #89 ) ;
#14 = CC_DESIGN_PERSON_AND_ORGANIZATION_ASSIGNMENT ( #11, #72, ( #181 ) ) ;
#15 = VERTEX_POINT ( 'NONE', #152 ) ;
#16 = CONICAL_SURFACE ( 'NONE', #84, 0.8499999999999986455, 0.5235987755982928205 ) ;
#17 = PERSON_AND_ORGANIZATION ( #137, #114 ) ;
#18 = EDGE_LOOP ( 'NONE', ( #140 ) ) ;
#19 = VERTEX_POINT ( 'NONE', #23 ) ;
#20 = DIRECTION ( 'NONE',  ( -3.491481338843133355E-15, 1.224646799147353207E-16, -1.000000000000000000 ) ) ;
#21 = EDGE_CURVE ( 'NONE', #40, #40, #149, .T. ) ;
#22 = TOROIDAL_SURFACE ( 'NONE', #178, 2.850000000000000089, 2.000000000000000000 ) ;
#23 = CARTESIAN_POINT ( 'NONE',  ( 6.284666409917640040E-14, 0.8499999999999978684, 18.00000000000000000 ) ) ;
#24 = CYLINDRICAL_SURFACE ( 'NONE', #66, 1.003499999999999615 ) ;
#25 = ADVANCED_FACE ( 'NONE', ( #110 ), #265, .F. ) ;
#26 = ORIENTED_EDGE ( 'NONE', *, *, #267, .F. ) ;
#27 = MANIFOLD_SOLID_BREP ( 'Corps-Déplacer/Copier1[2]', #116 ) ;
#28 = CARTESIAN_POINT ( 'NONE',  ( 6.405924284287275164E-14, 0.8803844939755788301, 18.34729635533384595 ) ) ;
#29 = EDGE_LOOP ( 'NONE', ( #160 ) ) ;
#30 = APPROVAL_STATUS ( 'not_yet_approved' ) ;
#31 = DIRECTION ( 'NONE',  ( -3.491481338843133355E-15, 1.224646799147353207E-16, -1.000000000000000000 ) ) ;
#32 = FACE_OUTER_BOUND ( 'NONE', #200, .T. ) ;
#33 = DIRECTION ( 'NONE',  ( -3.491481338843133355E-15, 1.224646799147353207E-16, -1.000000000000000000 ) ) ;
#34 = CARTESIAN_POINT ( 'NONE',  ( 1.745740669421566678E-13, -6.123233995736766085E-15, 50.00000000000000000 ) ) ;
#35 = EDGE_CURVE ( 'NONE', #216, #216, #151, .T. ) ;
#36 = DIRECTION ( 'NONE',  ( -3.838425399874912733E-31, -1.000000000000000000, -1.080420700035381505E-16 ) ) ;
#37 = PERSON_AND_ORGANIZATION ( #137, #114 ) ;
#38 = CARTESIAN_POINT ( 'NONE',  ( -1.836816873441542438E-31, 6.442686316706383748E-33, -5.260852615784430150E-17 ) ) ;
#39 = APPROVAL_DATE_TIME ( #167, #171 ) ;
#40 = VERTEX_POINT ( 'NONE', #6 ) ;
#41 = APPROVAL_STATUS ( 'not_yet_approved' ) ;
#42 = EDGE_CURVE ( 'NONE', #15, #15, #286, .T. ) ;
#43 = AXIS2_PLACEMENT_3D ( 'NONE', #293, #269, #249 ) ;
#44 = LOCAL_TIME ( 7, 44, 49.00000000000000000, #62 ) ;
#45 = DATE_TIME_ROLE ( 'classification_date' ) ;
#46 = CALENDAR_DATE ( 2021, 30, 11 ) ;
#47 = AXIS2_PLACEMENT_3D ( 'NONE', #207, #2, #235 ) ;
#48 = CARTESIAN_POINT ( 'NONE',  ( 1.745740669421566678E-13, -6.123233995736766085E-15, 50.00000000000000000 ) ) ;
#49 = FACE_OUTER_BOUND ( 'NONE', #159, .T. ) ;
#50 = DIRECTION ( 'NONE',  ( -3.491481338843133355E-15, 1.224646799147353207E-16, -1.000000000000000000 ) ) ;
#51 = PERSON_AND_ORGANIZATION_ROLE ( 'classification_officer' ) ;
#52 = CONICAL_SURFACE ( 'NONE', #199, 1.499999999999996669, 0.1745329251994259812 ) ;
#53 =( NAMED_UNIT ( * ) PLANE_ANGLE_UNIT ( ) SI_UNIT ( $, .RADIAN. ) );
#54 = FACE_OUTER_BOUND ( 'NONE', #255, .T. ) ;
#55 = APPLICATION_CONTEXT ( 'configuration controlled 3d designs of mechanical parts and assemblies' ) ;
#56 = ORIENTED_EDGE ( 'NONE', *, *, #79, .F. ) ;
#57 = DIRECTION ( 'NONE',  ( 3.838425399874912733E-31, 1.000000000000000000, 1.080420700035381505E-16 ) ) ;
#58 = COORDINATED_UNIVERSAL_TIME_OFFSET ( 1, 0, .AHEAD. ) ;
#59 = AXIS2_PLACEMENT_3D ( 'NONE', #233, #31, #122 ) ;
#60 = PERSON_AND_ORGANIZATION ( #137, #114 ) ;
#61 = DIRECTION ( 'NONE',  ( -3.491481338843133355E-15, 1.224646799147353207E-16, -1.000000000000000000 ) ) ;
#62 = COORDINATED_UNIVERSAL_TIME_OFFSET ( 1, 0, .AHEAD. ) ;
#63 = AXIS2_PLACEMENT_3D ( 'NONE', #133, #65, #64 ) ;
#64 = DIRECTION ( 'NONE',  ( 0.0000000000000000000, 1.000000000000000000, 0.0000000000000000000 ) ) ;
#65 = DIRECTION ( 'NONE',  ( -3.491481338843133355E-15, 1.224646799147353207E-16, -1.000000000000000000 ) ) ;
#66 = AXIS2_PLACEMENT_3D ( 'NONE', #91, #184, #273 ) ;
#67 = CC_DESIGN_PERSON_AND_ORGANIZATION_ASSIGNMENT ( #130, #212, ( #175 ) ) ;
#68 = CARTESIAN_POINT ( 'NONE',  ( 2.793185071074506684E-14, -9.797174393178825657E-16, 8.000000000000000000 ) ) ;
#69 = ORIENTED_EDGE ( 'NONE', *, *, #298, .T. ) ;
#70 = CIRCLE ( 'NONE', #13, 1.200000000000001732 ) ;
#71 = EDGE_LOOP ( 'NONE', ( #185 ) ) ;
#72 = PERSON_AND_ORGANIZATION_ROLE ( 'creator' ) ;
#73 = FACE_OUTER_BOUND ( 'NONE', #300, .T. ) ;
#74 = CIRCLE ( 'NONE', #63, 0.8499999999999986455 ) ;
#75 = ADVANCED_FACE ( 'NONE', ( #183, #162 ), #155, .T. ) ;
#76 = DATE_AND_TIME ( #100, #5 ) ;
#77 = APPROVAL_ROLE ( '' ) ;
#78 = FACE_OUTER_BOUND ( 'NONE', #230, .T. ) ;
#79 = EDGE_CURVE ( 'NONE', #19, #19, #260, .T. ) ;
#80 = CARTESIAN_POINT ( 'NONE',  ( 7.632835768763412300E-14, -2.677238394099722734E-15, 21.86131050980348078 ) ) ;
#81 = CIRCLE ( 'NONE', #227, 1.003500000000000281 ) ;
#82 = DESIGN_CONTEXT ( 'detailed design', #55, 'design' ) ;
#83 = SECURITY_CLASSIFICATION_LEVEL ( 'unclassified' ) ;
#84 = AXIS2_PLACEMENT_3D ( 'NONE', #189, #166, #213 ) ;
#85 = PLANE ( 'NONE',  #88 ) ;
#86 = DIRECTION ( 'NONE',  ( -3.491481338843133355E-15, 1.224646799147353207E-16, -1.000000000000000000 ) ) ;
#87 = DIRECTION ( 'NONE',  ( -3.491481338843133355E-15, 1.224646799147353207E-16, -1.000000000000000000 ) ) ;
#88 = AXIS2_PLACEMENT_3D ( 'NONE', #90, #271, #266 ) ;
#89 = DIRECTION ( 'NONE',  ( 0.0000000000000000000, 1.000000000000000000, 0.0000000000000000000 ) ) ;
#90 = CARTESIAN_POINT ( 'NONE',  ( 2.793185071074506684E-14, 7.525044709505856507E-33, 8.000000000000000000 ) ) ;
#91 = CARTESIAN_POINT ( 'NONE',  ( 0.0000000000000000000, 0.0000000000000000000, 0.0000000000000000000 ) ) ;
#92 = CIRCLE ( 'NONE', #138, 1.003499999999999170 ) ;
#93 = DIRECTION ( 'NONE',  ( 0.0000000000000000000, 1.000000000000000000, 0.0000000000000000000 ) ) ;
#94 = EDGE_LOOP ( 'NONE', ( #56 ) ) ;
#95 = ORIENTED_EDGE ( 'NONE', *, *, #42, .T. ) ;
#96 = APPROVAL ( #41, 'UNSPECIFIED' ) ;
#97 = CARTESIAN_POINT ( 'NONE',  ( 0.0000000000000000000, 0.0000000000000000000, 0.0000000000000000000 ) ) ;
#98 = EDGE_LOOP ( 'NONE', ( #95 ) ) ;
#99 = UNCERTAINTY_MEASURE_WITH_UNIT (LENGTH_MEASURE( 1.000000000000000082E-05 ), #3, 'distance_accuracy_value', 'NONE');
#100 = CALENDAR_DATE ( 2021, 30, 11 ) ;
#101 = CC_DESIGN_APPROVAL ( #171, ( #181 ) ) ;
#102 = FACE_OUTER_BOUND ( 'NONE', #284, .T. ) ;
#103 = VERTEX_POINT ( 'NONE', #253 ) ;
#104 = ORIENTED_EDGE ( 'NONE', *, *, #21, .T. ) ;
#105 = PLANE ( 'NONE',  #132 ) ;
#106 = DIRECTION ( 'NONE',  ( 1.000000000000000000, 0.0000000000000000000, 0.0000000000000000000 ) ) ;
#107 = FACE_OUTER_BOUND ( 'NONE', #18, .T. ) ;
#108 = COORDINATED_UNIVERSAL_TIME_OFFSET ( 1, 0, .AHEAD. ) ;
#109 = CONICAL_SURFACE ( 'NONE', #268, 1.200000000000001732, 0.7853981633974453924 ) ;
#110 = FACE_OUTER_BOUND ( 'NONE', #126, .T. ) ;
#111 = CC_DESIGN_APPROVAL ( #96, ( #175 ) ) ;
#112 = EDGE_CURVE ( 'NONE', #220, #220, #145, .T. ) ;
#113 = DIRECTION ( 'NONE',  ( -3.491481338843133355E-15, 1.224646799147353207E-16, -1.000000000000000000 ) ) ;
#114 = ORGANIZATION ( 'UNSPECIFIED', 'UNSPECIFIED', '' ) ;
#115 = CYLINDRICAL_SURFACE ( 'NONE', #59, 1.499999999999999112 ) ;
#116 = CLOSED_SHELL ( 'NONE', ( #263, #75, #188, #292 ) ) ;
#117 = AXIS2_PLACEMENT_3D ( 'NONE', #245, #217, #218 ) ;
#118 = CC_DESIGN_PERSON_AND_ORGANIZATION_ASSIGNMENT ( #193, #287, ( #175 ) ) ;
#119 = DIRECTION ( 'NONE',  ( 4.275831445896958607E-31, 1.000000000000000000, 1.224646799147352961E-16 ) ) ;
#120 = ORIENTED_EDGE ( 'NONE', *, *, #247, .F. ) ;
#121 = APPLICATION_PROTOCOL_DEFINITION ( 'international standard', 'config_control_design', 1994, #55 ) ;
#122 = DIRECTION ( 'NONE',  ( 4.275831445896958607E-31, 1.000000000000000000, 1.224646799147353454E-16 ) ) ;
#123 = DIRECTION ( 'NONE',  ( 0.0000000000000000000, 1.000000000000000000, 0.0000000000000000000 ) ) ;
#124 = CARTESIAN_POINT ( 'NONE',  ( 8.728703347107831416E-16, -3.061616997868382402E-17, 0.2499999999999999445 ) ) ;
#125 = VERTEX_POINT ( 'NONE', #283 ) ;
#126 = EDGE_LOOP ( 'NONE', ( #26 ) ) ;
#127 = DIRECTION ( 'NONE',  ( 3.491481338843133355E-15, -1.224646799147353207E-16, 1.000000000000000000 ) ) ;
#128 = APPROVAL_DATE_TIME ( #164, #96 ) ;
#129 = MANIFOLD_SOLID_BREP ( 'Corps-Déplacer/Copier1[1]', #299 ) ;
#130 = PERSON_AND_ORGANIZATION ( #137, #114 ) ;
#131 = APPROVAL ( #172, 'UNSPECIFIED' ) ;
#132 = AXIS2_PLACEMENT_3D ( 'NONE', #38, #127, #192 ) ;
#133 = CARTESIAN_POINT ( 'NONE',  ( 2.886013015238226509E-14, -1.012277099146737952E-15, 8.265869798961828607 ) ) ;
#134 = CARTESIAN_POINT ( 'NONE',  ( 6.284666409917640040E-14, -2.168404344971008868E-15, 18.00000000000000000 ) ) ;
#135 = ADVANCED_FACE ( 'NONE', ( #78, #302 ), #16, .T. ) ;
#136 = EDGE_LOOP ( 'NONE', ( #10 ) ) ;
#137 = PERSON ( 'UNSPECIFIED', 'UNSPECIFIED', 'UNSPECIFIED', ('UNSPECIFIED'), ('UNSPECIFIED'), ('UNSPECIFIED') ) ;
#138 = AXIS2_PLACEMENT_3D ( 'NONE', #190, #256, #57 ) ;
#139 = VERTEX_POINT ( 'NONE', #28 ) ;
#140 = ORIENTED_EDGE ( 'NONE', *, *, #298, .F. ) ;
#141 = MECHANICAL_CONTEXT ( 'NONE', #161, 'mechanical' ) ;
#142 = DIRECTION ( 'NONE',  ( 0.0000000000000000000, -1.000000000000000000, 0.0000000000000000000 ) ) ;
#143 = CC_DESIGN_DATE_AND_TIME_ASSIGNMENT ( #76, #187, ( #181 ) ) ;
#144 = CALENDAR_DATE ( 2021, 30, 11 ) ;
#145 = CIRCLE ( 'NONE', #224, 1.500000000000001554 ) ;
#146 = CALENDAR_DATE ( 2021, 30, 11 ) ;
#147 = DATE_AND_TIME ( #262, #44 ) ;
#148 = PRODUCT_RELATED_PRODUCT_CATEGORY ( 'detail', '', ( #156 ) ) ;
#149 = CIRCLE ( 'NONE', #117, 1.499999999999996669 ) ;
#150 = PRODUCT_DEFINITION_SHAPE ( 'NONE', 'NONE',  #181 ) ;
#151 = CIRCLE ( 'NONE', #170, 0.8591624327025949581 ) ;
#152 = CARTESIAN_POINT ( 'NONE',  ( 2.793185071074506684E-14, 1.003499999999999170, 8.000000000000000000 ) ) ;
#153 = APPROVAL_PERSON_ORGANIZATION ( #17, #131, #222 ) ;
#154 = FACE_OUTER_BOUND ( 'NONE', #179, .T. ) ;
#155 = CONICAL_SURFACE ( 'NONE', #205, 1.003499999999999170, 0.5235987755982922653 ) ;
#156 = PRODUCT ( '200102', '200102', '', ( #141 ) ) ;
#157 = CARTESIAN_POINT ( 'NONE',  ( 2.793185071074506684E-14, -9.797174393178825657E-16, 8.000000000000000000 ) ) ;
#158 = ADVANCED_FACE ( 'NONE', ( #73, #54 ), #115, .T. ) ;
#159 = EDGE_LOOP ( 'NONE', ( #270 ) ) ;
#160 = ORIENTED_EDGE ( 'NONE', *, *, #112, .F. ) ;
#161 = APPLICATION_CONTEXT ( 'configuration controlled 3d designs of mechanical parts and assemblies' ) ;
#162 = FACE_OUTER_BOUND ( 'NONE', #136, .T. ) ;
#163 = FACE_BOUND ( 'NONE', #4, .T. ) ;
#164 = DATE_AND_TIME ( #144, #206 ) ;
#165 = ORIENTED_EDGE ( 'NONE', *, *, #35, .T. ) ;
#166 = DIRECTION ( 'NONE',  ( -3.491481338843133355E-15, 1.224646799147353207E-16, -1.000000000000000000 ) ) ;
#167 = DATE_AND_TIME ( #146, #240 ) ;
#168 = EDGE_LOOP ( 'NONE', ( #120 ) ) ;
#169 = DIRECTION ( 'NONE',  ( 3.491481338843133355E-15, -1.224646799147353207E-16, 1.000000000000000000 ) ) ;
#170 = AXIS2_PLACEMENT_3D ( 'NONE', #294, #87, #119 ) ;
#171 = APPROVAL ( #30, 'UNSPECIFIED' ) ;
#172 = APPROVAL_STATUS ( 'not_yet_approved' ) ;
#173 = DIRECTION ( 'NONE',  ( 4.275831445896958607E-31, 1.000000000000000000, 1.224646799147353207E-16 ) ) ;
#174 = CARTESIAN_POINT ( 'NONE',  ( 0.0000000000000000000, 0.8591624327025949581, 0.0000000000000000000 ) ) ;
#175 = PRODUCT_DEFINITION_FORMATION_WITH_SPECIFIED_SOURCE ( 'ANY', '', #156, .NOT_KNOWN. ) ;
#176 = CC_DESIGN_APPROVAL ( #131, ( #291 ) ) ;
#177 = CARTESIAN_POINT ( 'NONE',  ( 1.735266225405037467E-13, 1.499999999999995559, 49.70000000000000284 ) ) ;
#178 = AXIS2_PLACEMENT_3D ( 'NONE', #134, #86, #173 ) ;
#179 = EDGE_LOOP ( 'NONE', ( #234 ) ) ;
#180 = CC_DESIGN_SECURITY_CLASSIFICATION ( #291, ( #175 ) ) ;
#181 = PRODUCT_DEFINITION ( 'UNKNOWN', '', #175, #82 ) ;
#182 = FACE_OUTER_BOUND ( 'NONE', #94, .T. ) ;
#183 = FACE_BOUND ( 'NONE', #71, .T. ) ;
#184 = DIRECTION ( 'NONE',  ( -3.491481338843133355E-15, 1.224646799147353207E-16, -1.000000000000000000 ) ) ;
#185 = ORIENTED_EDGE ( 'NONE', *, *, #35, .F. ) ;
#186 = DIRECTION ( 'NONE',  ( 3.491481338843133355E-15, -1.224646799147353207E-16, 1.000000000000000000 ) ) ;
#187 = DATE_TIME_ROLE ( 'creation_date' ) ;
#188 = ADVANCED_FACE ( 'NONE', ( #201, #154 ), #24, .T. ) ;
#189 = CARTESIAN_POINT ( 'NONE',  ( 2.886013015238226509E-14, -1.012277099146737952E-15, 8.265869798961828607 ) ) ;
#190 = CARTESIAN_POINT ( 'NONE',  ( 8.728703347107831416E-16, -3.061616997868382402E-17, 0.2499999999999999445 ) ) ;
#191 = EDGE_LOOP ( 'NONE', ( #69 ) ) ;
#192 = DIRECTION ( 'NONE',  ( -4.275831445896958607E-31, -1.000000000000000000, -1.224646799147353207E-16 ) ) ;
#193 = PERSON_AND_ORGANIZATION ( #137, #114 ) ;
#194 = FACE_OUTER_BOUND ( 'NONE', #98, .T. ) ;
#195 = APPROVAL_PERSON_ORGANIZATION ( #37, #171, #77 ) ;
#196 = CC_DESIGN_PERSON_AND_ORGANIZATION_ASSIGNMENT ( #60, #278, ( #156 ) ) ;
#197 = EDGE_LOOP ( 'NONE', ( #238 ) ) ;
#198 = CC_DESIGN_DATE_AND_TIME_ASSIGNMENT ( #290, #45, ( #291 ) ) ;
#199 = AXIS2_PLACEMENT_3D ( 'NONE', #80, #169, #142 ) ;
#200 = EDGE_LOOP ( 'NONE', ( #202 ) ) ;
#201 = FACE_OUTER_BOUND ( 'NONE', #168, .T. ) ;
#202 = ORIENTED_EDGE ( 'NONE', *, *, #79, .T. ) ;
#203 = FACE_OUTER_BOUND ( 'NONE', #197, .T. ) ;
#204 = DIRECTION ( 'NONE',  ( 0.0000000000000000000, 1.000000000000000000, 0.0000000000000000000 ) ) ;
#205 = AXIS2_PLACEMENT_3D ( 'NONE', #124, #186, #36 ) ;
#206 = LOCAL_TIME ( 7, 44, 49.00000000000000000, #58 ) ;
#207 = CARTESIAN_POINT ( 'NONE',  ( 6.284666409917640040E-14, -2.204364238465235428E-15, 18.00000000000000000 ) ) ;
#208 = ORIENTED_EDGE ( 'NONE', *, *, #272, .F. ) ;
#209 = ORIENTED_EDGE ( 'NONE', *, *, #267, .T. ) ;
#210 = APPLICATION_PROTOCOL_DEFINITION ( 'international standard', 'config_control_design', 1994, #161 ) ;
#211 = EDGE_CURVE ( 'NONE', #236, #236, #81, .T. ) ;
#212 = PERSON_AND_ORGANIZATION_ROLE ( 'creator' ) ;
#213 = DIRECTION ( 'NONE',  ( 0.0000000000000000000, 1.000000000000000000, 0.0000000000000000000 ) ) ;
#214 = AXIS2_PLACEMENT_3D ( 'NONE', #279, #61, #12 ) ;
#215 = PLANE ( 'NONE',  #252 ) ;
#216 = VERTEX_POINT ( 'NONE', #174 ) ;
#217 = DIRECTION ( 'NONE',  ( -3.491481338843133355E-15, 1.224646799147353207E-16, -1.000000000000000000 ) ) ;
#218 = DIRECTION ( 'NONE',  ( 0.0000000000000000000, 1.000000000000000000, 0.0000000000000000000 ) ) ;
#219 = DIRECTION ( 'NONE',  ( 3.491481338843133355E-15, -1.224646799147353207E-16, 1.000000000000000000 ) ) ;
#220 = VERTEX_POINT ( 'NONE', #177 ) ;
#221 = AXIS2_PLACEMENT_3D ( 'NONE', #259, #243, #228 ) ;
#222 = APPROVAL_ROLE ( '' ) ;
#223 = ADVANCED_FACE ( 'NONE', ( #274, #102 ), #52, .T. ) ;
#224 = AXIS2_PLACEMENT_3D ( 'NONE', #282, #33, #204 ) ;
#225 = ADVANCED_BREP_SHAPE_REPRESENTATION ( '200102', ( #129, #27, #295 ), #246 ) ;
#226 = EDGE_LOOP ( 'NONE', ( #165 ) ) ;
#227 = AXIS2_PLACEMENT_3D ( 'NONE', #157, #50, #93 ) ;
#228 = DIRECTION ( 'NONE',  ( 4.275831445896958607E-31, 1.000000000000000000, 1.224646799147353207E-16 ) ) ;
#229 = VERTEX_POINT ( 'NONE', #237 ) ;
#230 = EDGE_LOOP ( 'NONE', ( #1 ) ) ;
#231 = ADVANCED_FACE ( 'NONE', ( #7, #163 ), #109, .T. ) ;
#232 = COORDINATED_UNIVERSAL_TIME_OFFSET ( 1, 0, .AHEAD. ) ;
#233 = CARTESIAN_POINT ( 'NONE',  ( 0.0000000000000000000, 0.0000000000000000000, 0.0000000000000000000 ) ) ;
#234 = ORIENTED_EDGE ( 'NONE', *, *, #211, .T. ) ;
#235 = DIRECTION ( 'NONE',  ( 0.0000000000000000000, 1.000000000000000000, 0.0000000000000000000 ) ) ;
#236 = VERTEX_POINT ( 'NONE', #281 ) ;
#237 = CARTESIAN_POINT ( 'NONE',  ( 1.745740669421566678E-13, 1.199999999999995515, 50.00000000000000000 ) ) ;
#238 = ORIENTED_EDGE ( 'NONE', *, *, #211, .F. ) ;
#239 = FACE_OUTER_BOUND ( 'NONE', #226, .T. ) ;
#240 = LOCAL_TIME ( 7, 44, 49.00000000000000000, #241 ) ;
#241 = COORDINATED_UNIVERSAL_TIME_OFFSET ( 1, 0, .AHEAD. ) ;
#242 = PERSON_AND_ORGANIZATION ( #137, #114 ) ;
#243 = DIRECTION ( 'NONE',  ( -3.491481338843133355E-15, 1.224646799147353207E-16, -1.000000000000000000 ) ) ;
#244 = APPROVAL_DATE_TIME ( #147, #131 ) ;
#245 = CARTESIAN_POINT ( 'NONE',  ( 7.632835768763412300E-14, -2.677238394099722734E-15, 21.86131050980348078 ) ) ;
#246 =( GEOMETRIC_REPRESENTATION_CONTEXT ( 3 ) GLOBAL_UNCERTAINTY_ASSIGNED_CONTEXT ( ( #99 ) ) GLOBAL_UNIT_ASSIGNED_CONTEXT ( ( #3, #53, #8 ) ) REPRESENTATION_CONTEXT ( 'NONE', 'WORKASPACE' ) );
#247 = EDGE_CURVE ( 'NONE', #103, #103, #92, .T. ) ;
#248 = SHAPE_DEFINITION_REPRESENTATION ( #150, #225 ) ;
#249 = DIRECTION ( 'NONE',  ( 0.0000000000000000000, 1.000000000000000000, 0.0000000000000000000 ) ) ;
#250 = CIRCLE ( 'NONE', #43, 0.8803844939755811616 ) ;
#251 = PERSON_AND_ORGANIZATION ( #137, #114 ) ;
#252 = AXIS2_PLACEMENT_3D ( 'NONE', #289, #219, #258 ) ;
#253 = CARTESIAN_POINT ( 'NONE',  ( 8.728703347107835360E-16, 1.003499999999999170, 0.2500000000000000555 ) ) ;
#254 = DIRECTION ( 'NONE',  ( -3.491481338843133355E-15, 1.224646799147353207E-16, -1.000000000000000000 ) ) ;
#255 = EDGE_LOOP ( 'NONE', ( #277 ) ) ;
#256 = DIRECTION ( 'NONE',  ( -3.491481338843133355E-15, 1.224646799147353207E-16, -1.000000000000000000 ) ) ;
#257 = APPROVAL_ROLE ( '' ) ;
#258 = DIRECTION ( 'NONE',  ( -4.275831445896958607E-31, -1.000000000000000000, -1.224646799147353207E-16 ) ) ;
#259 = CARTESIAN_POINT ( 'NONE',  ( 1.745740669421566678E-13, 8.998558695971067645E-33, 50.00000000000000000 ) ) ;
#260 = CIRCLE ( 'NONE', #47, 0.8500000000000000888 ) ;
#261 = CYLINDRICAL_SURFACE ( 'NONE', #214, 0.8499999999999994227 ) ;
#262 = CALENDAR_DATE ( 2021, 30, 11 ) ;
#263 = ADVANCED_FACE ( 'NONE', ( #239 ), #105, .F. ) ;
#264 = AXIS2_PLACEMENT_3D ( 'NONE', #68, #20, #297 ) ;
#265 = PLANE ( 'NONE',  #221 ) ;
#266 = DIRECTION ( 'NONE',  ( -4.275831445896958607E-31, -1.000000000000000000, -1.224646799147353207E-16 ) ) ;
#267 = EDGE_CURVE ( 'NONE', #229, #229, #70, .T. ) ;
#268 = AXIS2_PLACEMENT_3D ( 'NONE', #34, #254, #123 ) ;
#269 = DIRECTION ( 'NONE',  ( -3.491481338843133355E-15, 1.224646799147353207E-16, -1.000000000000000000 ) ) ;
#270 = ORIENTED_EDGE ( 'NONE', *, *, #272, .T. ) ;
#271 = DIRECTION ( 'NONE',  ( 3.491481338843133355E-15, -1.224646799147353207E-16, 1.000000000000000000 ) ) ;
#272 = EDGE_CURVE ( 'NONE', #139, #139, #250, .T. ) ;
#273 = DIRECTION ( 'NONE',  ( 4.275831445896958607E-31, 1.000000000000000000, 1.224646799147353207E-16 ) ) ;
#274 = FACE_BOUND ( 'NONE', #303, .T. ) ;
#275 = ORIENTED_EDGE ( 'NONE', *, *, #21, .F. ) ;
#276 = ADVANCED_FACE ( 'NONE', ( #182, #49 ), #22, .F. ) ;
#277 = ORIENTED_EDGE ( 'NONE', *, *, #112, .T. ) ;
#278 = PERSON_AND_ORGANIZATION_ROLE ( 'design_owner' ) ;
#279 = CARTESIAN_POINT ( 'NONE',  ( 0.0000000000000000000, 0.0000000000000000000, 0.0000000000000000000 ) ) ;
#280 = LOCAL_TIME ( 7, 44, 49.00000000000000000, #232 ) ;
#281 = CARTESIAN_POINT ( 'NONE',  ( 2.793185071074506684E-14, 1.003499999999999170, 8.000000000000000000 ) ) ;
#282 = CARTESIAN_POINT ( 'NONE',  ( 1.735266225405037467E-13, -6.086494591762345225E-15, 49.70000000000000284 ) ) ;
#283 = CARTESIAN_POINT ( 'NONE',  ( 2.886013015238226509E-14, 0.8499999999999976463, 8.265869798961828607 ) ) ;
#284 = EDGE_LOOP ( 'NONE', ( #104 ) ) ;
#285 = DIRECTION ( 'NONE',  ( 0.0000000000000000000, 0.0000000000000000000, 1.000000000000000000 ) ) ;
#286 = CIRCLE ( 'NONE', #264, 1.003500000000000281 ) ;
#287 = PERSON_AND_ORGANIZATION_ROLE ( 'design_supplier' ) ;
#288 = ADVANCED_FACE ( 'NONE', ( #107, #32 ), #261, .T. ) ;
#289 = CARTESIAN_POINT ( 'NONE',  ( 2.793185071074506684E-14, 7.525044709505856507E-33, 8.000000000000000000 ) ) ;
#290 = DATE_AND_TIME ( #46, #280 ) ;
#291 = SECURITY_CLASSIFICATION ( '', '', #83 ) ;
#292 = ADVANCED_FACE ( 'NONE', ( #203 ), #85, .T. ) ;
#293 = CARTESIAN_POINT ( 'NONE',  ( 6.405924284287275164E-14, -2.246895775456749140E-15, 18.34729635533384595 ) ) ;
#294 = CARTESIAN_POINT ( 'NONE',  ( -3.673633746883084875E-31, 1.288537263341276750E-32, -1.052170523156886030E-16 ) ) ;
#295 = AXIS2_PLACEMENT_3D ( 'NONE', #97, #285, #106 ) ;
#296 = APPROVAL_PERSON_ORGANIZATION ( #242, #96, #257 ) ;
#297 = DIRECTION ( 'NONE',  ( 0.0000000000000000000, 1.000000000000000000, 0.0000000000000000000 ) ) ;
#298 = EDGE_CURVE ( 'NONE', #125, #125, #74, .T. ) ;
#299 = CLOSED_SHELL ( 'NONE', ( #301, #135, #288, #276, #223, #158, #231, #25 ) ) ;
#300 = EDGE_LOOP ( 'NONE', ( #275 ) ) ;
#301 = ADVANCED_FACE ( 'NONE', ( #194 ), #215, .F. ) ;
#302 = FACE_BOUND ( 'NONE', #191, .T. ) ;
#303 = EDGE_LOOP ( 'NONE', ( #208 ) ) ;
ENDSEC;
END-ISO-10303-21;
