ISO-10303-21;
HEADER;
FILE_DESCRIPTION (( 'STEP AP203' ),
    '1' );
FILE_NAME ('200054.step',
    '2021-11-29T14:58:40',
    ( '' ),
    ( '' ),
    'SwSTEP 2.0',
    'SolidWorks 2019',
    '' );
FILE_SCHEMA (( 'CONFIG_CONTROL_DESIGN' ));
ENDSEC;

DATA;
#1 = ADVANCED_FACE ( 'NONE', ( #127, #260 ), #128, .T. ) ;
#2 = PERSON_AND_ORGANIZATION ( #47, #202 ) ;
#3 = CC_DESIGN_APPROVAL ( #8, ( #37 ) ) ;
#4 = EDGE_LOOP ( 'NONE', ( #76 ) ) ;
#5 = EDGE_LOOP ( 'NONE', ( #78 ) ) ;
#6 = CALENDAR_DATE ( 2021, 29, 11 ) ;
#7 = CYLINDRICAL_SURFACE ( 'NONE', #279, 1.500000000000000444 ) ;
#8 = APPROVAL ( #275, 'UNSPECIFIED' ) ;
#9 = DIRECTION ( 'NONE',  ( 4.275831445896957731E-31, 1.000000000000000000, 1.224646799147352961E-16 ) ) ;
#10 = CIRCLE ( 'NONE', #222, 0.7534999999999940634 ) ;
#11 = CARTESIAN_POINT ( 'NONE',  ( -1.302337942704410788E-31, 4.567986588379019317E-33, -3.730044116850205669E-17 ) ) ;
#12 = FACE_OUTER_BOUND ( 'NONE', #187, .T. ) ;
#13 = ADVANCED_FACE ( 'NONE', ( #30, #121 ), #243, .T. ) ;
#14 = DIRECTION ( 'NONE',  ( -5.111957383907766847E-31, -1.000000000000000000, -1.438888085581304646E-16 ) ) ;
#15 = CONICAL_SURFACE ( 'NONE', #293, 0.7534999999999940634, 0.5235987755982930425 ) ;
#16 = CARTESIAN_POINT ( 'NONE',  ( 5.237222008264700033E-14, -1.836970198721029194E-15, 15.00000000000000000 ) ) ;
#17 = PERSON_AND_ORGANIZATION_ROLE ( 'creator' ) ;
#18 = VERTEX_POINT ( 'NONE', #153 ) ;
#19 = APPROVAL ( #182, 'UNSPECIFIED' ) ;
#20 = CARTESIAN_POINT ( 'NONE',  ( 2.506627765991135290E-14, -8.792066668447520663E-16, 7.179267258583374556 ) ) ;
#21 = AXIS2_PLACEMENT_3D ( 'NONE', #168, #99, #169 ) ;
#22 = COORDINATED_UNIVERSAL_TIME_OFFSET ( 1, 0, .AHEAD. ) ;
#23 = DIRECTION ( 'NONE',  ( -3.491481338843133355E-15, 1.224646799147352961E-16, -1.000000000000000000 ) ) ;
#24 = ORIENTED_EDGE ( 'NONE', *, *, #25, .F. ) ;
#25 = EDGE_CURVE ( 'NONE', #207, #207, #170, .T. ) ;
#26 = AXIS2_PLACEMENT_3D ( 'NONE', #241, #33, #101 ) ;
#27 = EDGE_LOOP ( 'NONE', ( #198 ) ) ;
#28 = CARTESIAN_POINT ( 'NONE',  ( 8.728703347107831416E-16, -3.061616997868381785E-17, 0.2499999999999999445 ) ) ;
#29 = AXIS2_PLACEMENT_3D ( 'NONE', #91, #255, #270 ) ;
#30 = FACE_OUTER_BOUND ( 'NONE', #31, .T. ) ;
#31 = EDGE_LOOP ( 'NONE', ( #50 ) ) ;
#32 = CC_DESIGN_PERSON_AND_ORGANIZATION_ASSIGNMENT ( #205, #271, ( #93 ) ) ;
#33 = DIRECTION ( 'NONE',  ( 3.491481338843133355E-15, -1.224646799147352961E-16, 1.000000000000000000 ) ) ;
#34 = PLANE ( 'NONE',  #100 ) ;
#35 = AXIS2_PLACEMENT_3D ( 'NONE', #136, #267, #181 ) ;
#36 = DIRECTION ( 'NONE',  ( -4.275831445896957731E-31, -1.000000000000000000, -1.224646799147352961E-16 ) ) ;
#37 = PRODUCT_DEFINITION ( 'UNKNOWN', '', #74, #41 ) ;
#38 = MANIFOLD_SOLID_BREP ( 'Corps-Déplacer/Copier1[1]', #162 ) ;
#39 = FACE_OUTER_BOUND ( 'NONE', #239, .T. ) ;
#40 = CLOSED_SHELL ( 'NONE', ( #139, #177, #1, #266 ) ) ;
#41 = DESIGN_CONTEXT ( 'detailed design', #117, 'design' ) ;
#42 = DIRECTION ( 'NONE',  ( 4.275831445896957731E-31, 1.000000000000000000, 1.224646799147352961E-16 ) ) ;
#43 = ADVANCED_FACE ( 'NONE', ( #219, #146 ), #7, .T. ) ;
#44 = FACE_OUTER_BOUND ( 'NONE', #159, .T. ) ;
#45 = APPROVAL_ROLE ( '' ) ;
#46 = VERTEX_POINT ( 'NONE', #157 ) ;
#47 = PERSON ( 'UNSPECIFIED', 'UNSPECIFIED', 'UNSPECIFIED', ('UNSPECIFIED'), ('UNSPECIFIED'), ('UNSPECIFIED') ) ;
#48 = CARTESIAN_POINT ( 'NONE',  ( 4.276423536147513034E-47, 0.6091624327025896291, 0.0000000000000000000 ) ) ;
#49 = COORDINATED_UNIVERSAL_TIME_OFFSET ( 1, 0, .AHEAD. ) ;
#50 = ORIENTED_EDGE ( 'NONE', *, *, #195, .F. ) ;
#51 = EDGE_LOOP ( 'NONE', ( #148 ) ) ;
#52 = APPROVAL_ROLE ( '' ) ;
#53 = AXIS2_PLACEMENT_3D ( 'NONE', #242, #98, #220 ) ;
#54 = CC_DESIGN_SECURITY_CLASSIFICATION ( #125, ( #74 ) ) ;
#55 = ORIENTED_EDGE ( 'NONE', *, *, #297, .F. ) ;
#56 = PRODUCT_RELATED_PRODUCT_CATEGORY ( 'detail', '', ( #93 ) ) ;
#57 = FACE_BOUND ( 'NONE', #120, .T. ) ;
#58 = CYLINDRICAL_SURFACE ( 'NONE', #116, 0.6499999999999995781 ) ;
#59 = CARTESIAN_POINT ( 'NONE',  ( 1.326762908760390423E-13, -4.653657836759941152E-15, 38.00000000000000000 ) ) ;
#60 = LOCAL_TIME ( 15, 58, 40.00000000000000000, #218 ) ;
#61 = FACE_OUTER_BOUND ( 'NONE', #199, .T. ) ;
#62 = CARTESIAN_POINT ( 'NONE',  ( -2.604675885408821577E-31, 9.135973176758038633E-33, -7.460088233700411338E-17 ) ) ;
#63 = CC_DESIGN_APPROVAL ( #172, ( #125 ) ) ;
#64 = EDGE_CURVE ( 'NONE', #89, #89, #247, .T. ) ;
#65 = PERSON_AND_ORGANIZATION_ROLE ( 'classification_officer' ) ;
#66 = DIRECTION ( 'NONE',  ( 0.0000000000000000000, 1.000000000000000000, 0.0000000000000000000 ) ) ;
#67 = PERSON_AND_ORGANIZATION ( #47, #202 ) ;
#68 = CARTESIAN_POINT ( 'NONE',  ( 2.444036937190193349E-14, 0.7534999999999940634, 7.000000000000000000 ) ) ;
#69 = PERSON_AND_ORGANIZATION ( #47, #202 ) ;
#70 = VERTEX_POINT ( 'NONE', #272 ) ;
#71 = AXIS2_PLACEMENT_3D ( 'NONE', #134, #230, #252 ) ;
#72 = PERSON_AND_ORGANIZATION ( #47, #202 ) ;
#73 = ORIENTED_EDGE ( 'NONE', *, *, #25, .T. ) ;
#74 = PRODUCT_DEFINITION_FORMATION_WITH_SPECIFIED_SOURCE ( 'ANY', '', #93, .NOT_KNOWN. ) ;
#75 = ORIENTED_EDGE ( 'NONE', *, *, #200, .F. ) ;
#76 = ORIENTED_EDGE ( 'NONE', *, *, #160, .T. ) ;
#77 = ADVANCED_FACE ( 'NONE', ( #283, #167 ), #58, .T. ) ;
#78 = ORIENTED_EDGE ( 'NONE', *, *, #244, .T. ) ;
#79 = CARTESIAN_POINT ( 'NONE',  ( 1.326762908760390423E-13, -4.653657836759941152E-15, 38.00000000000000000 ) ) ;
#80 = DIRECTION ( 'NONE',  ( -3.491481338843133355E-15, 1.224646799147352961E-16, -1.000000000000000000 ) ) ;
#81 = DIRECTION ( 'NONE',  ( -3.491481338843133355E-15, 1.224646799147352961E-16, -1.000000000000000000 ) ) ;
#82 = DIRECTION ( 'NONE',  ( 0.0000000000000000000, 1.000000000000000000, 0.0000000000000000000 ) ) ;
#83 = CIRCLE ( 'NONE', #29, 0.7534999999999949516 ) ;
#84 = PLANE ( 'NONE',  #71 ) ;
#85 = PERSON_AND_ORGANIZATION ( #47, #202 ) ;
#86 = DIRECTION ( 'NONE',  ( -3.491481338843133355E-15, 1.224646799147352961E-16, -1.000000000000000000 ) ) ;
#87 = AXIS2_PLACEMENT_3D ( 'NONE', #108, #290, #113 ) ;
#88 =( NAMED_UNIT ( * ) PLANE_ANGLE_UNIT ( ) SI_UNIT ( $, .RADIAN. ) );
#89 = VERTEX_POINT ( 'NONE', #179 ) ;
#90 = COORDINATED_UNIVERSAL_TIME_OFFSET ( 1, 0, .AHEAD. ) ;
#91 = CARTESIAN_POINT ( 'NONE',  ( 2.444036937190193349E-14, -8.572527594031471218E-16, 7.000000000000000000 ) ) ;
#92 = APPROVAL_DATE_TIME ( #186, #19 ) ;
#93 = PRODUCT ( '200054', '200054', '', ( #115 ) ) ;
#94 = ORIENTED_EDGE ( 'NONE', *, *, #235, .F. ) ;
#95 = DATE_AND_TIME ( #176, #237 ) ;
#96 = ADVANCED_FACE ( 'NONE', ( #57, #61 ), #151, .T. ) ;
#97 = CIRCLE ( 'NONE', #206, 0.6091624327025896291 ) ;
#98 = DIRECTION ( 'NONE',  ( -3.491481338843133355E-15, 1.224646799147352961E-16, -1.000000000000000000 ) ) ;
#99 = DIRECTION ( 'NONE',  ( -3.491481338843133355E-15, 1.224646799147352961E-16, -1.000000000000000000 ) ) ;
#100 = AXIS2_PLACEMENT_3D ( 'NONE', #11, #245, #36 ) ;
#101 = DIRECTION ( 'NONE',  ( 0.0000000000000000000, -1.000000000000000000, 0.0000000000000000000 ) ) ;
#102 = CARTESIAN_POINT ( 'NONE',  ( 0.0000000000000000000, 0.0000000000000000000, 0.0000000000000000000 ) ) ;
#103 = CARTESIAN_POINT ( 'NONE',  ( 8.728703347107831416E-16, -3.061616997868381785E-17, 0.2499999999999999445 ) ) ;
#104 = DIRECTION ( 'NONE',  ( -4.275831445896957731E-31, -1.000000000000000000, -1.224646799147352961E-16 ) ) ;
#105 = ADVANCED_FACE ( 'NONE', ( #12, #263 ), #189, .T. ) ;
#106 = DIRECTION ( 'NONE',  ( -3.491481338843133355E-15, 1.224646799147352961E-16, -1.000000000000000000 ) ) ;
#107 = PERSON_AND_ORGANIZATION_ROLE ( 'design_supplier' ) ;
#108 = CARTESIAN_POINT ( 'NONE',  ( 1.316288464743861212E-13, -4.616918432785520292E-15, 37.69999999999999574 ) ) ;
#109 = PRODUCT_DEFINITION_SHAPE ( 'NONE', 'NONE',  #37 ) ;
#110 = AXIS2_PLACEMENT_3D ( 'NONE', #79, #224, #82 ) ;
#111 = DIRECTION ( 'NONE',  ( 0.0000000000000000000, 1.000000000000000000, 0.0000000000000000000 ) ) ;
#112 = TOROIDAL_SURFACE ( 'NONE', #276, 2.649999999999999911, 2.000000000000000444 ) ;
#113 = DIRECTION ( 'NONE',  ( 0.0000000000000000000, 1.000000000000000000, 0.0000000000000000000 ) ) ;
#114 = ORIENTED_EDGE ( 'NONE', *, *, #297, .T. ) ;
#115 = MECHANICAL_CONTEXT ( 'NONE', #192, 'mechanical' ) ;
#116 = AXIS2_PLACEMENT_3D ( 'NONE', #102, #282, #147 ) ;
#117 = APPLICATION_CONTEXT ( 'configuration controlled 3d designs of mechanical parts and assemblies' ) ;
#118 = DATE_TIME_ROLE ( 'classification_date' ) ;
#119 = APPROVAL_DATE_TIME ( #303, #172 ) ;
#120 = EDGE_LOOP ( 'NONE', ( #221 ) ) ;
#121 = FACE_BOUND ( 'NONE', #258, .T. ) ;
#122 = ORIENTED_EDGE ( 'NONE', *, *, #190, .T. ) ;
#123 = EDGE_LOOP ( 'NONE', ( #24 ) ) ;
#124 = CIRCLE ( 'NONE', #254, 0.6499999999999990230 ) ;
#125 = SECURITY_CLASSIFICATION ( '', '', #204 ) ;
#126 = CC_DESIGN_PERSON_AND_ORGANIZATION_ASSIGNMENT ( #213, #301, ( #37 ) ) ;
#127 = FACE_OUTER_BOUND ( 'NONE', #277, .T. ) ;
#128 = CYLINDRICAL_SURFACE ( 'NONE', #144, 0.7534999999999945075 ) ;
#129 = PLANE ( 'NONE',  #197 ) ;
#130 = DATE_AND_TIME ( #298, #264 ) ;
#131 = DIRECTION ( 'NONE',  ( 4.275831445896957731E-31, 1.000000000000000000, 1.224646799147352961E-16 ) ) ;
#132 = UNCERTAINTY_MEASURE_WITH_UNIT (LENGTH_MEASURE( 1.000000000000000082E-05 ), #133, 'distance_accuracy_value', 'NONE');
#133 =( LENGTH_UNIT ( ) NAMED_UNIT ( * ) SI_UNIT ( .MILLI., .METRE. ) );
#134 = CARTESIAN_POINT ( 'NONE',  ( 2.444036937190193349E-14, 5.650344981178495496E-33, 7.000000000000000000 ) ) ;
#135 = VERTEX_POINT ( 'NONE', #48 ) ;
#136 = CARTESIAN_POINT ( 'NONE',  ( 6.981414859920802045E-14, -2.448750696904670809E-15, 19.99556687372707486 ) ) ;
#137 = CARTESIAN_POINT ( 'NONE',  ( 0.0000000000000000000, 0.0000000000000000000, 0.0000000000000000000 ) ) ;
#138 = DIRECTION ( 'NONE',  ( 4.275831445896957731E-31, 1.000000000000000000, 1.224646799147352961E-16 ) ) ;
#139 = ADVANCED_FACE ( 'NONE', ( #261 ), #34, .F. ) ;
#140 = ORIENTED_EDGE ( 'NONE', *, *, #160, .F. ) ;
#141 = AXIS2_PLACEMENT_3D ( 'NONE', #59, #80, #150 ) ;
#142 = CC_DESIGN_PERSON_AND_ORGANIZATION_ASSIGNMENT ( #69, #107, ( #74 ) ) ;
#143 = EDGE_LOOP ( 'NONE', ( #122 ) ) ;
#144 = AXIS2_PLACEMENT_3D ( 'NONE', #259, #223, #9 ) ;
#145 = LOCAL_TIME ( 15, 58, 40.00000000000000000, #232 ) ;
#146 = FACE_OUTER_BOUND ( 'NONE', #212, .T. ) ;
#147 = DIRECTION ( 'NONE',  ( 4.275831445896957731E-31, 1.000000000000000000, 1.224646799147352714E-16 ) ) ;
#148 = ORIENTED_EDGE ( 'NONE', *, *, #235, .T. ) ;
#149 = CIRCLE ( 'NONE', #35, 1.499999999999997780 ) ;
#150 = DIRECTION ( 'NONE',  ( 0.0000000000000000000, 1.000000000000000000, 0.0000000000000000000 ) ) ;
#151 = CONICAL_SURFACE ( 'NONE', #26, 1.499999999999997780, 0.1745329251994262587 ) ;
#152 = FACE_OUTER_BOUND ( 'NONE', #284, .T. ) ;
#153 = CARTESIAN_POINT ( 'NONE',  ( 1.316288464743861212E-13, 1.499999999999998668, 37.69999999999999574 ) ) ;
#154 = FACE_OUTER_BOUND ( 'NONE', #27, .T. ) ;
#155 =( NAMED_UNIT ( * ) SI_UNIT ( $, .STERADIAN. ) SOLID_ANGLE_UNIT ( ) );
#156 = DIRECTION ( 'NONE',  ( -3.491481338843133355E-15, 1.224646799147352961E-16, -1.000000000000000000 ) ) ;
#157 = CARTESIAN_POINT ( 'NONE',  ( 2.444036937190193349E-14, 0.7534999999999940634, 7.000000000000000000 ) ) ;
#158 = CIRCLE ( 'NONE', #171, 0.6500000000000001332 ) ;
#159 = EDGE_LOOP ( 'NONE', ( #193 ) ) ;
#160 = EDGE_CURVE ( 'NONE', #70, #70, #10, .T. ) ;
#161 = VERTEX_POINT ( 'NONE', #231 ) ;
#162 = CLOSED_SHELL ( 'NONE', ( #289, #13, #77, #210, #96, #43, #105, #183 ) ) ;
#163 = APPROVAL_PERSON_ORGANIZATION ( #67, #8, #45 ) ;
#164 = DATE_AND_TIME ( #191, #60 ) ;
#165 = ORIENTED_EDGE ( 'NONE', *, *, #200, .T. ) ;
#166 = EDGE_LOOP ( 'NONE', ( #55 ) ) ;
#167 = FACE_OUTER_BOUND ( 'NONE', #5, .T. ) ;
#168 = CARTESIAN_POINT ( 'NONE',  ( 5.358479882634336420E-14, -1.879501735712543302E-15, 15.34729635533384773 ) ) ;
#169 = DIRECTION ( 'NONE',  ( 0.0000000000000000000, 1.000000000000000000, 0.0000000000000000000 ) ) ;
#170 = CIRCLE ( 'NONE', #110, 1.200000000000003286 ) ;
#171 = AXIS2_PLACEMENT_3D ( 'NONE', #16, #106, #66 ) ;
#172 = APPROVAL ( #278, 'UNSPECIFIED' ) ;
#173 = DIRECTION ( 'NONE',  ( 4.275831445896957731E-31, 1.000000000000000000, 1.224646799147353207E-16 ) ) ;
#174 = VERTEX_POINT ( 'NONE', #68 ) ;
#175 = CARTESIAN_POINT ( 'NONE',  ( 2.444036937190193349E-14, 5.650344981178495496E-33, 7.000000000000000000 ) ) ;
#176 = CALENDAR_DATE ( 2021, 29, 11 ) ;
#177 = ADVANCED_FACE ( 'NONE', ( #265, #236 ), #15, .T. ) ;
#178 = VERTEX_POINT ( 'NONE', #250 ) ;
#179 = CARTESIAN_POINT ( 'NONE',  ( 5.358479882634336420E-14, 0.6803844939755787635, 15.34729635533384773 ) ) ;
#180 = APPROVAL_ROLE ( '' ) ;
#181 = DIRECTION ( 'NONE',  ( 0.0000000000000000000, 1.000000000000000000, 0.0000000000000000000 ) ) ;
#182 = APPROVAL_STATUS ( 'not_yet_approved' ) ;
#183 = ADVANCED_FACE ( 'NONE', ( #227 ), #129, .F. ) ;
#184 = ORIENTED_EDGE ( 'NONE', *, *, #244, .F. ) ;
#185 = APPROVAL_PERSON_ORGANIZATION ( #2, #172, #52 ) ;
#186 = DATE_AND_TIME ( #273, #145 ) ;
#187 = EDGE_LOOP ( 'NONE', ( #75 ) ) ;
#188 = EDGE_LOOP ( 'NONE', ( #73 ) ) ;
#189 = CONICAL_SURFACE ( 'NONE', #141, 1.200000000000003286, 0.7853981633974453924 ) ;
#190 = EDGE_CURVE ( 'NONE', #174, #174, #226, .T. ) ;
#191 = CALENDAR_DATE ( 2021, 29, 11 ) ;
#192 = APPLICATION_CONTEXT ( 'configuration controlled 3d designs of mechanical parts and assemblies' ) ;
#193 = ORIENTED_EDGE ( 'NONE', *, *, #195, .T. ) ;
#194 = CARTESIAN_POINT ( 'NONE',  ( 0.0000000000000000000, 0.0000000000000000000, 0.0000000000000000000 ) ) ;
#195 = EDGE_CURVE ( 'NONE', #46, #46, #83, .T. ) ;
#196 = EDGE_LOOP ( 'NONE', ( #94 ) ) ;
#197 = AXIS2_PLACEMENT_3D ( 'NONE', #203, #246, #131 ) ;
#198 = ORIENTED_EDGE ( 'NONE', *, *, #190, .F. ) ;
#199 = EDGE_LOOP ( 'NONE', ( #114 ) ) ;
#200 = EDGE_CURVE ( 'NONE', #18, #18, #302, .T. ) ;
#201 = DIRECTION ( 'NONE',  ( -3.491481338843133355E-15, 1.224646799147352961E-16, -1.000000000000000000 ) ) ;
#202 = ORGANIZATION ( 'UNSPECIFIED', 'UNSPECIFIED', '' ) ;
#203 = CARTESIAN_POINT ( 'NONE',  ( 1.326762908760390423E-13, 8.998558695971099120E-33, 38.00000000000000000 ) ) ;
#204 = SECURITY_CLASSIFICATION_LEVEL ( 'unclassified' ) ;
#205 = PERSON_AND_ORGANIZATION ( #47, #202 ) ;
#206 = AXIS2_PLACEMENT_3D ( 'NONE', #62, #156, #138 ) ;
#207 = VERTEX_POINT ( 'NONE', #296 ) ;
#208 = APPLICATION_PROTOCOL_DEFINITION ( 'international standard', 'config_control_design', 1994, #117 ) ;
#209 = CARTESIAN_POINT ( 'NONE',  ( 5.237222008264700033E-14, -1.734723475976807094E-15, 15.00000000000000000 ) ) ;
#210 = ADVANCED_FACE ( 'NONE', ( #39, #152 ), #112, .F. ) ;
#211 = APPLICATION_PROTOCOL_DEFINITION ( 'international standard', 'config_control_design', 1994, #192 ) ;
#212 = EDGE_LOOP ( 'NONE', ( #165 ) ) ;
#213 = PERSON_AND_ORGANIZATION ( #47, #202 ) ;
#214 = ADVANCED_BREP_SHAPE_REPRESENTATION ( '200054', ( #38, #240, #268 ), #217 ) ;
#215 = CC_DESIGN_DATE_AND_TIME_ASSIGNMENT ( #164, #118, ( #125 ) ) ;
#216 = SHAPE_DEFINITION_REPRESENTATION ( #109, #214 ) ;
#217 =( GEOMETRIC_REPRESENTATION_CONTEXT ( 3 ) GLOBAL_UNCERTAINTY_ASSIGNED_CONTEXT ( ( #132 ) ) GLOBAL_UNIT_ASSIGNED_CONTEXT ( ( #133, #88, #155 ) ) REPRESENTATION_CONTEXT ( 'NONE', 'WORKASPACE' ) );
#218 = COORDINATED_UNIVERSAL_TIME_OFFSET ( 1, 0, .AHEAD. ) ;
#219 = FACE_OUTER_BOUND ( 'NONE', #166, .T. ) ;
#220 = DIRECTION ( 'NONE',  ( 0.0000000000000000000, 1.000000000000000000, 0.0000000000000000000 ) ) ;
#221 = ORIENTED_EDGE ( 'NONE', *, *, #64, .F. ) ;
#222 = AXIS2_PLACEMENT_3D ( 'NONE', #103, #201, #287 ) ;
#223 = DIRECTION ( 'NONE',  ( -3.491481338843133355E-15, 1.224646799147352961E-16, -1.000000000000000000 ) ) ;
#224 = DIRECTION ( 'NONE',  ( -3.491481338843133355E-15, 1.224646799147352961E-16, -1.000000000000000000 ) ) ;
#225 = DIRECTION ( 'NONE',  ( 3.491481338843133355E-15, -1.224646799147352961E-16, 1.000000000000000000 ) ) ;
#226 = CIRCLE ( 'NONE', #294, 0.7534999999999949516 ) ;
#227 = FACE_OUTER_BOUND ( 'NONE', #123, .T. ) ;
#228 = CARTESIAN_POINT ( 'NONE',  ( 2.506627765991135290E-14, 0.6499999999999981348, 7.179267258583374556 ) ) ;
#229 = VERTEX_POINT ( 'NONE', #228 ) ;
#230 = DIRECTION ( 'NONE',  ( 3.491481338843133355E-15, -1.224646799147352961E-16, 1.000000000000000000 ) ) ;
#231 = CARTESIAN_POINT ( 'NONE',  ( 6.981414859920802045E-14, 1.499999999999995559, 19.99556687372707486 ) ) ;
#232 = COORDINATED_UNIVERSAL_TIME_OFFSET ( 1, 0, .AHEAD. ) ;
#233 = PLANE ( 'NONE',  #280 ) ;
#234 = LOCAL_TIME ( 15, 58, 40.00000000000000000, #49 ) ;
#235 = EDGE_CURVE ( 'NONE', #135, #135, #97, .T. ) ;
#236 = FACE_OUTER_BOUND ( 'NONE', #4, .T. ) ;
#237 = LOCAL_TIME ( 15, 58, 40.00000000000000000, #90 ) ;
#238 = CC_DESIGN_PERSON_AND_ORGANIZATION_ASSIGNMENT ( #72, #17, ( #74 ) ) ;
#239 = EDGE_LOOP ( 'NONE', ( #184 ) ) ;
#240 = MANIFOLD_SOLID_BREP ( 'Corps-Déplacer/Copier1[2]', #40 ) ;
#241 = CARTESIAN_POINT ( 'NONE',  ( 6.981414859920802045E-14, -2.448750696904670809E-15, 19.99556687372707486 ) ) ;
#242 = CARTESIAN_POINT ( 'NONE',  ( 2.506627765991135290E-14, -8.792066668447520663E-16, 7.179267258583374556 ) ) ;
#243 = CONICAL_SURFACE ( 'NONE', #53, 0.6499999999999990230, 0.5235987755982920433 ) ;
#244 = EDGE_CURVE ( 'NONE', #178, #178, #158, .T. ) ;
#245 = DIRECTION ( 'NONE',  ( 3.491481338843133355E-15, -1.224646799147352961E-16, 1.000000000000000000 ) ) ;
#246 = DIRECTION ( 'NONE',  ( -3.491481338843133355E-15, 1.224646799147352961E-16, -1.000000000000000000 ) ) ;
#247 = CIRCLE ( 'NONE', #21, 0.6803844939755806509 ) ;
#248 = CARTESIAN_POINT ( 'NONE',  ( 2.444036937190193349E-14, -8.572527594031471218E-16, 7.000000000000000000 ) ) ;
#249 = DIRECTION ( 'NONE',  ( -3.491481338843133355E-15, 1.224646799147352961E-16, -1.000000000000000000 ) ) ;
#250 = CARTESIAN_POINT ( 'NONE',  ( 5.237222008264700033E-14, 0.6499999999999982458, 15.00000000000000000 ) ) ;
#251 = CC_DESIGN_DATE_AND_TIME_ASSIGNMENT ( #95, #269, ( #37 ) ) ;
#252 = DIRECTION ( 'NONE',  ( -4.275831445896957731E-31, -1.000000000000000000, -1.224646799147352961E-16 ) ) ;
#253 = APPROVAL_DATE_TIME ( #130, #8 ) ;
#254 = AXIS2_PLACEMENT_3D ( 'NONE', #20, #249, #111 ) ;
#255 = DIRECTION ( 'NONE',  ( -3.491481338843133355E-15, 1.224646799147352961E-16, -1.000000000000000000 ) ) ;
#256 = ORIENTED_EDGE ( 'NONE', *, *, #285, .T. ) ;
#257 = APPROVAL_PERSON_ORGANIZATION ( #291, #19, #180 ) ;
#258 = EDGE_LOOP ( 'NONE', ( #256 ) ) ;
#259 = CARTESIAN_POINT ( 'NONE',  ( 0.0000000000000000000, 0.0000000000000000000, 0.0000000000000000000 ) ) ;
#260 = FACE_OUTER_BOUND ( 'NONE', #143, .T. ) ;
#261 = FACE_OUTER_BOUND ( 'NONE', #51, .T. ) ;
#262 = CC_DESIGN_PERSON_AND_ORGANIZATION_ASSIGNMENT ( #85, #65, ( #125 ) ) ;
#263 = FACE_BOUND ( 'NONE', #188, .T. ) ;
#264 = LOCAL_TIME ( 15, 58, 40.00000000000000000, #22 ) ;
#265 = FACE_BOUND ( 'NONE', #196, .T. ) ;
#266 = ADVANCED_FACE ( 'NONE', ( #154 ), #233, .T. ) ;
#267 = DIRECTION ( 'NONE',  ( -3.491481338843133355E-15, 1.224646799147352961E-16, -1.000000000000000000 ) ) ;
#268 = AXIS2_PLACEMENT_3D ( 'NONE', #137, #299, #295 ) ;
#269 = DATE_TIME_ROLE ( 'creation_date' ) ;
#270 = DIRECTION ( 'NONE',  ( 0.0000000000000000000, 1.000000000000000000, 0.0000000000000000000 ) ) ;
#271 = PERSON_AND_ORGANIZATION_ROLE ( 'design_owner' ) ;
#272 = CARTESIAN_POINT ( 'NONE',  ( 8.728703347107835360E-16, 0.7534999999999940634, 0.2500000000000000555 ) ) ;
#273 = CALENDAR_DATE ( 2021, 29, 11 ) ;
#274 = DIRECTION ( 'NONE',  ( 3.491481338843133355E-15, -1.224646799147352961E-16, 1.000000000000000000 ) ) ;
#275 = APPROVAL_STATUS ( 'not_yet_approved' ) ;
#276 = AXIS2_PLACEMENT_3D ( 'NONE', #209, #86, #42 ) ;
#277 = EDGE_LOOP ( 'NONE', ( #140 ) ) ;
#278 = APPROVAL_STATUS ( 'not_yet_approved' ) ;
#279 = AXIS2_PLACEMENT_3D ( 'NONE', #194, #81, #173 ) ;
#280 = AXIS2_PLACEMENT_3D ( 'NONE', #175, #274, #104 ) ;
#281 = EDGE_LOOP ( 'NONE', ( #286 ) ) ;
#282 = DIRECTION ( 'NONE',  ( -3.491481338843133355E-15, 1.224646799147352961E-16, -1.000000000000000000 ) ) ;
#283 = FACE_OUTER_BOUND ( 'NONE', #281, .T. ) ;
#284 = EDGE_LOOP ( 'NONE', ( #300 ) ) ;
#285 = EDGE_CURVE ( 'NONE', #229, #229, #124, .T. ) ;
#286 = ORIENTED_EDGE ( 'NONE', *, *, #285, .F. ) ;
#287 = DIRECTION ( 'NONE',  ( 5.111957383907766847E-31, 1.000000000000000000, 1.438888085581304646E-16 ) ) ;
#288 = CC_DESIGN_APPROVAL ( #19, ( #74 ) ) ;
#289 = ADVANCED_FACE ( 'NONE', ( #44 ), #84, .F. ) ;
#290 = DIRECTION ( 'NONE',  ( -3.491481338843133355E-15, 1.224646799147352961E-16, -1.000000000000000000 ) ) ;
#291 = PERSON_AND_ORGANIZATION ( #47, #202 ) ;
#292 = DIRECTION ( 'NONE',  ( 0.0000000000000000000, 1.000000000000000000, 0.0000000000000000000 ) ) ;
#293 = AXIS2_PLACEMENT_3D ( 'NONE', #28, #225, #14 ) ;
#294 = AXIS2_PLACEMENT_3D ( 'NONE', #248, #23, #292 ) ;
#295 = DIRECTION ( 'NONE',  ( 1.000000000000000000, 0.0000000000000000000, 0.0000000000000000000 ) ) ;
#296 = CARTESIAN_POINT ( 'NONE',  ( 1.326762908760390423E-13, 1.199999999999998845, 38.00000000000000000 ) ) ;
#297 = EDGE_CURVE ( 'NONE', #161, #161, #149, .T. ) ;
#298 = CALENDAR_DATE ( 2021, 29, 11 ) ;
#299 = DIRECTION ( 'NONE',  ( 0.0000000000000000000, 0.0000000000000000000, 1.000000000000000000 ) ) ;
#300 = ORIENTED_EDGE ( 'NONE', *, *, #64, .T. ) ;
#301 = PERSON_AND_ORGANIZATION_ROLE ( 'creator' ) ;
#302 = CIRCLE ( 'NONE', #87, 1.500000000000003331 ) ;
#303 = DATE_AND_TIME ( #6, #234 ) ;
ENDSEC;
END-ISO-10303-21;
