ISO-10303-21;
HEADER;
FILE_DESCRIPTION (( 'STEP AP203' ),
    '1' );
FILE_NAME ('200053.step',
    '2021-11-29T14:58:39',
    ( '' ),
    ( '' ),
    'SwSTEP 2.0',
    'SolidWorks 2019',
    '' );
FILE_SCHEMA (( 'CONFIG_CONTROL_DESIGN' ));
ENDSEC;

DATA;
#1 = CARTESIAN_POINT ( 'NONE',  ( 2.444036937190193349E-14, 5.462875008345801612E-33, 7.000000000000000000 ) ) ;
#2 = DIRECTION ( 'NONE',  ( 0.0000000000000000000, 1.000000000000000000, 0.0000000000000000000 ) ) ;
#3 = LOCAL_TIME ( 15, 58, 39.00000000000000000, #78 ) ;
#4 = CARTESIAN_POINT ( 'NONE',  ( 8.728703347107835360E-16, 0.7284999999999992593, 0.2500000000000000555 ) ) ;
#5 = CALENDAR_DATE ( 2021, 29, 11 ) ;
#6 = APPROVAL_STATUS ( 'not_yet_approved' ) ;
#7 = SECURITY_CLASSIFICATION_LEVEL ( 'unclassified' ) ;
#8 = CIRCLE ( 'NONE', #48, 0.7285000000000000364 ) ;
#9 = ORIENTED_EDGE ( 'NONE', *, *, #125, .T. ) ;
#10 = EDGE_LOOP ( 'NONE', ( #76 ) ) ;
#11 = DATE_TIME_ROLE ( 'classification_date' ) ;
#12 = EDGE_LOOP ( 'NONE', ( #297 ) ) ;
#13 = EDGE_CURVE ( 'NONE', #185, #185, #132, .T. ) ;
#14 = EDGE_LOOP ( 'NONE', ( #100 ) ) ;
#15 = AXIS2_PLACEMENT_3D ( 'NONE', #212, #28, #27 ) ;
#16 = DIRECTION ( 'NONE',  ( -3.491481338843133355E-15, 1.224646799147352961E-16, -1.000000000000000000 ) ) ;
#17 = CARTESIAN_POINT ( 'NONE',  ( 7.001216034561317649E-14, -2.455696014032128387E-15, 20.05227969192325332 ) ) ;
#18 = ADVANCED_FACE ( 'NONE', ( #203, #177 ), #158, .T. ) ;
#19 = DIRECTION ( 'NONE',  ( -4.275831445896957731E-31, -1.000000000000000000, -1.224646799147352961E-16 ) ) ;
#20 = CONICAL_SURFACE ( 'NONE', #248, 1.200000000000003286, 0.7853981633974453924 ) ;
#21 = DIRECTION ( 'NONE',  ( -3.491481338843133355E-15, 1.224646799147352961E-16, -1.000000000000000000 ) ) ;
#22 = DIRECTION ( 'NONE',  ( -3.491481338843133355E-15, 1.224646799147352961E-16, -1.000000000000000000 ) ) ;
#23 = EDGE_CURVE ( 'NONE', #112, #112, #168, .T. ) ;
#24 = VERTEX_POINT ( 'NONE', #210 ) ;
#25 = AXIS2_PLACEMENT_3D ( 'NONE', #115, #280, #191 ) ;
#26 = CARTESIAN_POINT ( 'NONE',  ( -4.390515925644581914E-31, 1.539985683190755019E-32, -1.257493739634115875E-16 ) ) ;
#27 = DIRECTION ( 'NONE',  ( 0.0000000000000000000, 1.000000000000000000, 0.0000000000000000000 ) ) ;
#28 = DIRECTION ( 'NONE',  ( -3.491481338843133355E-15, 1.224646799147352961E-16, -1.000000000000000000 ) ) ;
#29 = PERSON ( 'UNSPECIFIED', 'UNSPECIFIED', 'UNSPECIFIED', ('UNSPECIFIED'), ('UNSPECIFIED'), ('UNSPECIFIED') ) ;
#30 = MECHANICAL_CONTEXT ( 'NONE', #170, 'mechanical' ) ;
#31 = COORDINATED_UNIVERSAL_TIME_OFFSET ( 1, 0, .AHEAD. ) ;
#32 = MANIFOLD_SOLID_BREP ( 'Corps-Déplacer/Copier1[1]', #90 ) ;
#33 = APPROVAL ( #214, 'UNSPECIFIED' ) ;
#34 = VERTEX_POINT ( 'NONE', #244 ) ;
#35 =( GEOMETRIC_REPRESENTATION_CONTEXT ( 3 ) GLOBAL_UNCERTAINTY_ASSIGNED_CONTEXT ( ( #127 ) ) GLOBAL_UNIT_ASSIGNED_CONTEXT ( ( #290, #75, #61 ) ) REPRESENTATION_CONTEXT ( 'NONE', 'WORKASPACE' ) );
#36 = ADVANCED_FACE ( 'NONE', ( #275, #43 ), #47, .T. ) ;
#37 = ORIENTED_EDGE ( 'NONE', *, *, #23, .F. ) ;
#38 = AXIS2_PLACEMENT_3D ( 'NONE', #153, #139, #231 ) ;
#39 = DIRECTION ( 'NONE',  ( -5.287384885071345693E-31, -1.000000000000000000, -1.488266537385731580E-16 ) ) ;
#40 = CARTESIAN_POINT ( 'NONE',  ( 1.326762908760390423E-13, -4.653657836759941152E-15, 38.00000000000000000 ) ) ;
#41 = EDGE_CURVE ( 'NONE', #140, #140, #233, .T. ) ;
#42 = DIRECTION ( 'NONE',  ( 3.491481338843133355E-15, -1.224646799147352961E-16, 1.000000000000000000 ) ) ;
#43 = FACE_OUTER_BOUND ( 'NONE', #273, .T. ) ;
#44 = ORIENTED_EDGE ( 'NONE', *, *, #41, .T. ) ;
#45 = EDGE_CURVE ( 'NONE', #283, #283, #8, .T. ) ;
#46 = FACE_OUTER_BOUND ( 'NONE', #167, .T. ) ;
#47 = CONICAL_SURFACE ( 'NONE', #219, 0.7284999999999992593, 0.5235987755982929315 ) ;
#48 = AXIS2_PLACEMENT_3D ( 'NONE', #228, #206, #157 ) ;
#49 = DIRECTION ( 'NONE',  ( -3.491481338843133355E-15, 1.224646799147352961E-16, -1.000000000000000000 ) ) ;
#50 = ADVANCED_FACE ( 'NONE', ( #104, #271 ), #246, .T. ) ;
#51 = DIRECTION ( 'NONE',  ( -4.275831445896957731E-31, -1.000000000000000000, -1.224646799147352961E-16 ) ) ;
#52 = DIRECTION ( 'NONE',  ( -3.491481338843133355E-15, 1.224646799147352961E-16, -1.000000000000000000 ) ) ;
#53 = AXIS2_PLACEMENT_3D ( 'NONE', #26, #49, #113 ) ;
#54 = CALENDAR_DATE ( 2021, 29, 11 ) ;
#55 = ADVANCED_FACE ( 'NONE', ( #64, #250 ), #84, .T. ) ;
#56 = CARTESIAN_POINT ( 'NONE',  ( 2.444036937190193349E-14, 0.7284999999999992593, 7.000000000000000000 ) ) ;
#57 = EDGE_LOOP ( 'NONE', ( #291 ) ) ;
#58 = CALENDAR_DATE ( 2021, 29, 11 ) ;
#59 = EDGE_LOOP ( 'NONE', ( #193 ) ) ;
#60 = AXIS2_PLACEMENT_3D ( 'NONE', #227, #21, #63 ) ;
#61 =( NAMED_UNIT ( * ) SI_UNIT ( $, .STERADIAN. ) SOLID_ANGLE_UNIT ( ) );
#62 = ORIENTED_EDGE ( 'NONE', *, *, #45, .F. ) ;
#63 = DIRECTION ( 'NONE',  ( 0.0000000000000000000, 1.000000000000000000, 0.0000000000000000000 ) ) ;
#64 = FACE_OUTER_BOUND ( 'NONE', #12, .T. ) ;
#65 = EDGE_LOOP ( 'NONE', ( #37 ) ) ;
#66 = EDGE_LOOP ( 'NONE', ( #130 ) ) ;
#67 = LOCAL_TIME ( 15, 58, 39.00000000000000000, #240 ) ;
#68 = FACE_BOUND ( 'NONE', #57, .T. ) ;
#69 = CARTESIAN_POINT ( 'NONE',  ( 5.237222008264700033E-14, 0.6399999999999982370, 15.00000000000000000 ) ) ;
#70 = FACE_OUTER_BOUND ( 'NONE', #10, .T. ) ;
#71 = CIRCLE ( 'NONE', #53, 0.5841624327025947139 ) ;
#72 = PLANE ( 'NONE',  #229 ) ;
#73 = CARTESIAN_POINT ( 'NONE',  ( 2.444036937190193349E-14, 5.462875008345801612E-33, 7.000000000000000000 ) ) ;
#74 = ADVANCED_FACE ( 'NONE', ( #226 ), #251, .F. ) ;
#75 =( NAMED_UNIT ( * ) PLANE_ANGLE_UNIT ( ) SI_UNIT ( $, .RADIAN. ) );
#76 = ORIENTED_EDGE ( 'NONE', *, *, #302, .F. ) ;
#77 = CARTESIAN_POINT ( 'NONE',  ( 0.0000000000000000000, 0.0000000000000000000, 0.0000000000000000000 ) ) ;
#78 = COORDINATED_UNIVERSAL_TIME_OFFSET ( 1, 0, .AHEAD. ) ;
#79 = EDGE_CURVE ( 'NONE', #232, #232, #204, .T. ) ;
#80 = EDGE_LOOP ( 'NONE', ( #181 ) ) ;
#81 = FACE_BOUND ( 'NONE', #285, .T. ) ;
#82 = ADVANCED_FACE ( 'NONE', ( #293, #81 ), #20, .T. ) ;
#83 = EDGE_LOOP ( 'NONE', ( #223 ) ) ;
#84 = CONICAL_SURFACE ( 'NONE', #60, 0.6399999999999991251, 0.5235987755982929315 ) ;
#85 = EDGE_LOOP ( 'NONE', ( #62 ) ) ;
#86 = CONICAL_SURFACE ( 'NONE', #163, 1.499999999999997780, 0.1745329251994263420 ) ;
#87 = DIRECTION ( 'NONE',  ( 0.0000000000000000000, 1.000000000000000000, 0.0000000000000000000 ) ) ;
#88 = CARTESIAN_POINT ( 'NONE',  ( -2.195257962822290957E-31, 7.699928415953775095E-33, -6.287468698170579373E-17 ) ) ;
#89 = PLANE ( 'NONE',  #239 ) ;
#90 = CLOSED_SHELL ( 'NONE', ( #152, #55, #247, #105, #93, #50, #82, #207 ) ) ;
#91 = DIRECTION ( 'NONE',  ( 0.0000000000000000000, 1.000000000000000000, 0.0000000000000000000 ) ) ;
#92 = FACE_OUTER_BOUND ( 'NONE', #274, .T. ) ;
#93 = ADVANCED_FACE ( 'NONE', ( #68, #46 ), #86, .T. ) ;
#94 = CARTESIAN_POINT ( 'NONE',  ( 5.358479882634335789E-14, 0.6703844939755783106, 15.34729635533384595 ) ) ;
#95 = CC_DESIGN_SECURITY_CLASSIFICATION ( #108, ( #148 ) ) ;
#96 = VERTEX_POINT ( 'NONE', #69 ) ;
#97 = APPROVAL_STATUS ( 'not_yet_approved' ) ;
#98 = DATE_AND_TIME ( #54, #209 ) ;
#99 = PERSON_AND_ORGANIZATION_ROLE ( 'classification_officer' ) ;
#100 = ORIENTED_EDGE ( 'NONE', *, *, #79, .T. ) ;
#101 = COORDINATED_UNIVERSAL_TIME_OFFSET ( 1, 0, .AHEAD. ) ;
#102 = ADVANCED_FACE ( 'NONE', ( #254 ), #72, .T. ) ;
#103 = APPROVAL_ROLE ( '' ) ;
#104 = FACE_OUTER_BOUND ( 'NONE', #59, .T. ) ;
#105 = ADVANCED_FACE ( 'NONE', ( #92, #147 ), #262, .F. ) ;
#106 = DIRECTION ( 'NONE',  ( -3.491481338843133355E-15, 1.224646799147352961E-16, -1.000000000000000000 ) ) ;
#107 = CARTESIAN_POINT ( 'NONE',  ( 1.316288464743861212E-13, -4.616918432785520292E-15, 37.69999999999999574 ) ) ;
#108 = SECURITY_CLASSIFICATION ( '', '', #7 ) ;
#109 = ORIENTED_EDGE ( 'NONE', *, *, #125, .F. ) ;
#110 = EDGE_CURVE ( 'NONE', #24, #24, #71, .T. ) ;
#111 = CARTESIAN_POINT ( 'NONE',  ( 2.497556631382305933E-14, -8.760249411285784127E-16, 7.153286496469849709 ) ) ;
#112 = VERTEX_POINT ( 'NONE', #188 ) ;
#113 = DIRECTION ( 'NONE',  ( 4.275831445896957731E-31, 1.000000000000000000, 1.224646799147352961E-16 ) ) ;
#114 = DIRECTION ( 'NONE',  ( 5.287384885071345693E-31, 1.000000000000000000, 1.488266537385731580E-16 ) ) ;
#115 = CARTESIAN_POINT ( 'NONE',  ( 0.0000000000000000000, 0.0000000000000000000, 0.0000000000000000000 ) ) ;
#116 = FACE_OUTER_BOUND ( 'NONE', #65, .T. ) ;
#117 = CIRCLE ( 'NONE', #292, 1.200000000000003286 ) ;
#118 = DATE_AND_TIME ( #265, #67 ) ;
#119 = PERSON_AND_ORGANIZATION ( #29, #242 ) ;
#120 = COORDINATED_UNIVERSAL_TIME_OFFSET ( 1, 0, .AHEAD. ) ;
#121 = PERSON_AND_ORGANIZATION_ROLE ( 'creator' ) ;
#122 = ORIENTED_EDGE ( 'NONE', *, *, #110, .F. ) ;
#123 = AXIS2_PLACEMENT_3D ( 'NONE', #17, #178, #270 ) ;
#124 = AXIS2_PLACEMENT_3D ( 'NONE', #162, #22, #114 ) ;
#125 = EDGE_CURVE ( 'NONE', #213, #213, #286, .T. ) ;
#126 = APPLICATION_PROTOCOL_DEFINITION ( 'international standard', 'config_control_design', 1994, #170 ) ;
#127 = UNCERTAINTY_MEASURE_WITH_UNIT (LENGTH_MEASURE( 1.000000000000000082E-05 ), #290, 'distance_accuracy_value', 'NONE');
#128 = DATE_AND_TIME ( #5, #189 ) ;
#129 = APPROVAL_DATE_TIME ( #215, #194 ) ;
#130 = ORIENTED_EDGE ( 'NONE', *, *, #269, .T. ) ;
#131 = EDGE_LOOP ( 'NONE', ( #241 ) ) ;
#132 = CIRCLE ( 'NONE', #143, 0.6703844939755801979 ) ;
#133 = DIRECTION ( 'NONE',  ( 4.275831445896957731E-31, 1.000000000000000000, 1.224646799147353207E-16 ) ) ;
#134 = MANIFOLD_SOLID_BREP ( 'Corps-Déplacer/Copier1[2]', #260 ) ;
#135 = CARTESIAN_POINT ( 'NONE',  ( 5.358479882634335789E-14, -1.879501735712542907E-15, 15.34729635533384595 ) ) ;
#136 = DIRECTION ( 'NONE',  ( 0.0000000000000000000, 1.000000000000000000, 0.0000000000000000000 ) ) ;
#137 = CC_DESIGN_DATE_AND_TIME_ASSIGNMENT ( #222, #11, ( #108 ) ) ;
#138 = ORIENTED_EDGE ( 'NONE', *, *, #160, .F. ) ;
#139 = DIRECTION ( 'NONE',  ( -3.491481338843133355E-15, 1.224646799147352961E-16, -1.000000000000000000 ) ) ;
#140 = VERTEX_POINT ( 'NONE', #279 ) ;
#141 = CC_DESIGN_DATE_AND_TIME_ASSIGNMENT ( #118, #176, ( #183 ) ) ;
#142 = CARTESIAN_POINT ( 'NONE',  ( 7.001216034561317649E-14, -2.455696014032128387E-15, 20.05227969192325332 ) ) ;
#143 = AXIS2_PLACEMENT_3D ( 'NONE', #135, #294, #87 ) ;
#144 = AXIS2_PLACEMENT_3D ( 'NONE', #77, #173, #263 ) ;
#145 = FACE_OUTER_BOUND ( 'NONE', #224, .T. ) ;
#146 = CYLINDRICAL_SURFACE ( 'NONE', #25, 0.6399999999999994582 ) ;
#147 = FACE_OUTER_BOUND ( 'NONE', #180, .T. ) ;
#148 = PRODUCT_DEFINITION_FORMATION_WITH_SPECIFIED_SOURCE ( 'ANY', '', #276, .NOT_KNOWN. ) ;
#149 = PERSON_AND_ORGANIZATION_ROLE ( 'creator' ) ;
#150 = APPROVAL_DATE_TIME ( #98, #298 ) ;
#151 = AXIS2_PLACEMENT_3D ( 'NONE', #1, #208, #284 ) ;
#152 = ADVANCED_FACE ( 'NONE', ( #159 ), #211, .F. ) ;
#153 = CARTESIAN_POINT ( 'NONE',  ( 0.0000000000000000000, 0.0000000000000000000, 0.0000000000000000000 ) ) ;
#154 = DIRECTION ( 'NONE',  ( 3.491481338843133355E-15, -1.224646799147352961E-16, 1.000000000000000000 ) ) ;
#155 = DIRECTION ( 'NONE',  ( -3.491481338843133355E-15, 1.224646799147352961E-16, -1.000000000000000000 ) ) ;
#156 = CC_DESIGN_PERSON_AND_ORGANIZATION_ASSIGNMENT ( #195, #289, ( #148 ) ) ;
#157 = DIRECTION ( 'NONE',  ( 0.0000000000000000000, 1.000000000000000000, 0.0000000000000000000 ) ) ;
#158 = CYLINDRICAL_SURFACE ( 'NONE', #38, 0.7284999999999997033 ) ;
#159 = FACE_OUTER_BOUND ( 'NONE', #66, .T. ) ;
#160 = EDGE_CURVE ( 'NONE', #96, #96, #255, .T. ) ;
#161 = VERTEX_POINT ( 'NONE', #56 ) ;
#162 = CARTESIAN_POINT ( 'NONE',  ( 8.728703347107831416E-16, -3.061616997868381785E-17, 0.2499999999999999445 ) ) ;
#163 = AXIS2_PLACEMENT_3D ( 'NONE', #142, #281, #253 ) ;
#164 = CARTESIAN_POINT ( 'NONE',  ( 2.444036937190193349E-14, 0.7284999999999992593, 7.000000000000000000 ) ) ;
#165 = DIRECTION ( 'NONE',  ( -3.491481338843133355E-15, 1.224646799147352961E-16, -1.000000000000000000 ) ) ;
#166 = PERSON_AND_ORGANIZATION_ROLE ( 'design_owner' ) ;
#167 = EDGE_LOOP ( 'NONE', ( #44 ) ) ;
#168 = CIRCLE ( 'NONE', #196, 0.6399999999999991251 ) ;
#169 = SHAPE_DEFINITION_REPRESENTATION ( #300, #277 ) ;
#170 = APPLICATION_CONTEXT ( 'configuration controlled 3d designs of mechanical parts and assemblies' ) ;
#171 = PERSON_AND_ORGANIZATION ( #29, #242 ) ;
#172 = CC_DESIGN_PERSON_AND_ORGANIZATION_ASSIGNMENT ( #119, #121, ( #148 ) ) ;
#173 = DIRECTION ( 'NONE',  ( 0.0000000000000000000, 0.0000000000000000000, 1.000000000000000000 ) ) ;
#174 = DESIGN_CONTEXT ( 'detailed design', #216, 'design' ) ;
#175 = CALENDAR_DATE ( 2021, 29, 11 ) ;
#176 = DATE_TIME_ROLE ( 'creation_date' ) ;
#177 = FACE_OUTER_BOUND ( 'NONE', #80, .T. ) ;
#178 = DIRECTION ( 'NONE',  ( -3.491481338843133355E-15, 1.224646799147352961E-16, -1.000000000000000000 ) ) ;
#179 = AXIS2_PLACEMENT_3D ( 'NONE', #201, #106, #133 ) ;
#180 = EDGE_LOOP ( 'NONE', ( #245 ) ) ;
#181 = ORIENTED_EDGE ( 'NONE', *, *, #45, .T. ) ;
#182 = DIRECTION ( 'NONE',  ( -3.491481338843133355E-15, 1.224646799147352961E-16, -1.000000000000000000 ) ) ;
#183 = PRODUCT_DEFINITION ( 'UNKNOWN', '', #148, #174 ) ;
#184 = AXIS2_PLACEMENT_3D ( 'NONE', #107, #182, #249 ) ;
#185 = VERTEX_POINT ( 'NONE', #94 ) ;
#186 = CARTESIAN_POINT ( 'NONE',  ( 1.316288464743861212E-13, 1.499999999999998668, 37.69999999999999574 ) ) ;
#187 = CARTESIAN_POINT ( 'NONE',  ( 1.326762908760390423E-13, 8.998558695971099120E-33, 38.00000000000000000 ) ) ;
#188 = CARTESIAN_POINT ( 'NONE',  ( 2.497556631382305933E-14, 0.6399999999999982370, 7.153286496469849709 ) ) ;
#189 = LOCAL_TIME ( 15, 58, 39.00000000000000000, #120 ) ;
#190 = CC_DESIGN_PERSON_AND_ORGANIZATION_ASSIGNMENT ( #238, #166, ( #276 ) ) ;
#191 = DIRECTION ( 'NONE',  ( 4.275831445896957731E-31, 1.000000000000000000, 1.224646799147352961E-16 ) ) ;
#192 = APPROVAL_ROLE ( '' ) ;
#193 = ORIENTED_EDGE ( 'NONE', *, *, #41, .F. ) ;
#194 = APPROVAL ( #97, 'UNSPECIFIED' ) ;
#195 = PERSON_AND_ORGANIZATION ( #29, #242 ) ;
#196 = AXIS2_PLACEMENT_3D ( 'NONE', #111, #155, #136 ) ;
#197 = APPROVAL_PERSON_ORGANIZATION ( #268, #33, #192 ) ;
#198 = PERSON_AND_ORGANIZATION ( #29, #242 ) ;
#199 = EDGE_LOOP ( 'NONE', ( #109 ) ) ;
#200 = APPROVAL_PERSON_ORGANIZATION ( #261, #298, #103 ) ;
#201 = CARTESIAN_POINT ( 'NONE',  ( 0.0000000000000000000, 0.0000000000000000000, 0.0000000000000000000 ) ) ;
#202 = ORIENTED_EDGE ( 'NONE', *, *, #79, .F. ) ;
#203 = FACE_OUTER_BOUND ( 'NONE', #199, .T. ) ;
#204 = CIRCLE ( 'NONE', #184, 1.500000000000003331 ) ;
#205 = EDGE_LOOP ( 'NONE', ( #122 ) ) ;
#206 = DIRECTION ( 'NONE',  ( -3.491481338843133355E-15, 1.224646799147352961E-16, -1.000000000000000000 ) ) ;
#207 = ADVANCED_FACE ( 'NONE', ( #70 ), #89, .F. ) ;
#208 = DIRECTION ( 'NONE',  ( 3.491481338843133355E-15, -1.224646799147352961E-16, 1.000000000000000000 ) ) ;
#209 = LOCAL_TIME ( 15, 58, 39.00000000000000000, #31 ) ;
#210 = CARTESIAN_POINT ( 'NONE',  ( -1.892735826383161794E-31, 0.5841624327025947139, -5.421010862427523403E-17 ) ) ;
#211 = PLANE ( 'NONE',  #151 ) ;
#212 = CARTESIAN_POINT ( 'NONE',  ( 2.444036937190193349E-14, -8.572527594031471218E-16, 7.000000000000000000 ) ) ;
#213 = VERTEX_POINT ( 'NONE', #4 ) ;
#214 = APPROVAL_STATUS ( 'not_yet_approved' ) ;
#215 = DATE_AND_TIME ( #58, #234 ) ;
#216 = APPLICATION_CONTEXT ( 'configuration controlled 3d designs of mechanical parts and assemblies' ) ;
#217 = APPROVAL_DATE_TIME ( #128, #33 ) ;
#218 = APPROVAL_ROLE ( '' ) ;
#219 = AXIS2_PLACEMENT_3D ( 'NONE', #230, #42, #39 ) ;
#220 = AXIS2_PLACEMENT_3D ( 'NONE', #88, #154, #19 ) ;
#221 = PERSON_AND_ORGANIZATION ( #29, #242 ) ;
#222 = DATE_AND_TIME ( #175, #3 ) ;
#223 = ORIENTED_EDGE ( 'NONE', *, *, #110, .T. ) ;
#224 = EDGE_LOOP ( 'NONE', ( #264 ) ) ;
#225 = AXIS2_PLACEMENT_3D ( 'NONE', #237, #165, #91 ) ;
#226 = FACE_OUTER_BOUND ( 'NONE', #83, .T. ) ;
#227 = CARTESIAN_POINT ( 'NONE',  ( 2.497556631382305933E-14, -8.760249411285784127E-16, 7.153286496469849709 ) ) ;
#228 = CARTESIAN_POINT ( 'NONE',  ( 2.444036937190193349E-14, -8.572527594031471218E-16, 7.000000000000000000 ) ) ;
#229 = AXIS2_PLACEMENT_3D ( 'NONE', #73, #235, #51 ) ;
#230 = CARTESIAN_POINT ( 'NONE',  ( 8.728703347107831416E-16, -3.061616997868381785E-17, 0.2499999999999999445 ) ) ;
#231 = DIRECTION ( 'NONE',  ( 4.275831445896957731E-31, 1.000000000000000000, 1.224646799147352961E-16 ) ) ;
#232 = VERTEX_POINT ( 'NONE', #186 ) ;
#233 = CIRCLE ( 'NONE', #123, 1.499999999999997780 ) ;
#234 = LOCAL_TIME ( 15, 58, 39.00000000000000000, #101 ) ;
#235 = DIRECTION ( 'NONE',  ( 3.491481338843133355E-15, -1.224646799147352961E-16, 1.000000000000000000 ) ) ;
#236 = DIRECTION ( 'NONE',  ( 4.275831445896957731E-31, 1.000000000000000000, 1.224646799147352961E-16 ) ) ;
#237 = CARTESIAN_POINT ( 'NONE',  ( 5.237222008264700033E-14, -1.836970198721029194E-15, 15.00000000000000000 ) ) ;
#238 = PERSON_AND_ORGANIZATION ( #29, #242 ) ;
#239 = AXIS2_PLACEMENT_3D ( 'NONE', #187, #257, #259 ) ;
#240 = COORDINATED_UNIVERSAL_TIME_OFFSET ( 1, 0, .AHEAD. ) ;
#241 = ORIENTED_EDGE ( 'NONE', *, *, #23, .T. ) ;
#242 = ORGANIZATION ( 'UNSPECIFIED', 'UNSPECIFIED', '' ) ;
#243 = CC_DESIGN_PERSON_AND_ORGANIZATION_ASSIGNMENT ( #221, #149, ( #183 ) ) ;
#244 = CARTESIAN_POINT ( 'NONE',  ( 1.326762908760390423E-13, 1.199999999999998845, 38.00000000000000000 ) ) ;
#245 = ORIENTED_EDGE ( 'NONE', *, *, #13, .T. ) ;
#246 = CYLINDRICAL_SURFACE ( 'NONE', #179, 1.500000000000000444 ) ;
#247 = ADVANCED_FACE ( 'NONE', ( #116, #145 ), #146, .T. ) ;
#248 = AXIS2_PLACEMENT_3D ( 'NONE', #40, #16, #295 ) ;
#249 = DIRECTION ( 'NONE',  ( 0.0000000000000000000, 1.000000000000000000, 0.0000000000000000000 ) ) ;
#250 = FACE_BOUND ( 'NONE', #131, .T. ) ;
#251 = PLANE ( 'NONE',  #220 ) ;
#252 = EDGE_LOOP ( 'NONE', ( #202 ) ) ;
#253 = DIRECTION ( 'NONE',  ( 0.0000000000000000000, -1.000000000000000000, 0.0000000000000000000 ) ) ;
#254 = FACE_OUTER_BOUND ( 'NONE', #85, .T. ) ;
#255 = CIRCLE ( 'NONE', #225, 0.6400000000000000133 ) ;
#256 = AXIS2_PLACEMENT_3D ( 'NONE', #258, #303, #236 ) ;
#257 = DIRECTION ( 'NONE',  ( -3.491481338843133355E-15, 1.224646799147352961E-16, -1.000000000000000000 ) ) ;
#258 = CARTESIAN_POINT ( 'NONE',  ( 5.237222008264700033E-14, -1.734723475976807094E-15, 15.00000000000000000 ) ) ;
#259 = DIRECTION ( 'NONE',  ( 4.275831445896957731E-31, 1.000000000000000000, 1.224646799147352961E-16 ) ) ;
#260 = CLOSED_SHELL ( 'NONE', ( #74, #36, #18, #102 ) ) ;
#261 = PERSON_AND_ORGANIZATION ( #29, #242 ) ;
#262 = TOROIDAL_SURFACE ( 'NONE', #256, 2.640000000000000124, 2.000000000000000888 ) ;
#263 = DIRECTION ( 'NONE',  ( 1.000000000000000000, 0.0000000000000000000, 0.0000000000000000000 ) ) ;
#264 = ORIENTED_EDGE ( 'NONE', *, *, #160, .T. ) ;
#265 = CALENDAR_DATE ( 2021, 29, 11 ) ;
#266 = ORIENTED_EDGE ( 'NONE', *, *, #302, .T. ) ;
#267 = CC_DESIGN_PERSON_AND_ORGANIZATION_ASSIGNMENT ( #171, #99, ( #108 ) ) ;
#268 = PERSON_AND_ORGANIZATION ( #29, #242 ) ;
#269 = EDGE_CURVE ( 'NONE', #161, #161, #296, .T. ) ;
#270 = DIRECTION ( 'NONE',  ( 0.0000000000000000000, 1.000000000000000000, 0.0000000000000000000 ) ) ;
#271 = FACE_OUTER_BOUND ( 'NONE', #14, .T. ) ;
#272 = APPROVAL_PERSON_ORGANIZATION ( #198, #194, #218 ) ;
#273 = EDGE_LOOP ( 'NONE', ( #9 ) ) ;
#274 = EDGE_LOOP ( 'NONE', ( #138 ) ) ;
#275 = FACE_BOUND ( 'NONE', #205, .T. ) ;
#276 = PRODUCT ( '200053', '200053', '', ( #30 ) ) ;
#277 = ADVANCED_BREP_SHAPE_REPRESENTATION ( '200053', ( #32, #134, #144 ), #35 ) ;
#278 = CC_DESIGN_APPROVAL ( #298, ( #183 ) ) ;
#279 = CARTESIAN_POINT ( 'NONE',  ( 7.001216034561317649E-14, 1.499999999999995559, 20.05227969192325332 ) ) ;
#280 = DIRECTION ( 'NONE',  ( -3.491481338843133355E-15, 1.224646799147352961E-16, -1.000000000000000000 ) ) ;
#281 = DIRECTION ( 'NONE',  ( 3.491481338843133355E-15, -1.224646799147352961E-16, 1.000000000000000000 ) ) ;
#282 = CC_DESIGN_APPROVAL ( #33, ( #108 ) ) ;
#283 = VERTEX_POINT ( 'NONE', #164 ) ;
#284 = DIRECTION ( 'NONE',  ( -4.275831445896957731E-31, -1.000000000000000000, -1.224646799147352961E-16 ) ) ;
#285 = EDGE_LOOP ( 'NONE', ( #266 ) ) ;
#286 = CIRCLE ( 'NONE', #124, 0.7284999999999992593 ) ;
#287 = APPLICATION_PROTOCOL_DEFINITION ( 'international standard', 'config_control_design', 1994, #216 ) ;
#288 = PRODUCT_RELATED_PRODUCT_CATEGORY ( 'detail', '', ( #276 ) ) ;
#289 = PERSON_AND_ORGANIZATION_ROLE ( 'design_supplier' ) ;
#290 =( LENGTH_UNIT ( ) NAMED_UNIT ( * ) SI_UNIT ( .MILLI., .METRE. ) );
#291 = ORIENTED_EDGE ( 'NONE', *, *, #13, .F. ) ;
#292 = AXIS2_PLACEMENT_3D ( 'NONE', #299, #52, #2 ) ;
#293 = FACE_OUTER_BOUND ( 'NONE', #252, .T. ) ;
#294 = DIRECTION ( 'NONE',  ( -3.491481338843133355E-15, 1.224646799147352961E-16, -1.000000000000000000 ) ) ;
#295 = DIRECTION ( 'NONE',  ( 0.0000000000000000000, 1.000000000000000000, 0.0000000000000000000 ) ) ;
#296 = CIRCLE ( 'NONE', #15, 0.7285000000000000364 ) ;
#297 = ORIENTED_EDGE ( 'NONE', *, *, #269, .F. ) ;
#298 = APPROVAL ( #6, 'UNSPECIFIED' ) ;
#299 = CARTESIAN_POINT ( 'NONE',  ( 1.326762908760390423E-13, -4.653657836759941152E-15, 38.00000000000000000 ) ) ;
#300 = PRODUCT_DEFINITION_SHAPE ( 'NONE', 'NONE',  #183 ) ;
#301 = CC_DESIGN_APPROVAL ( #194, ( #148 ) ) ;
#302 = EDGE_CURVE ( 'NONE', #34, #34, #117, .T. ) ;
#303 = DIRECTION ( 'NONE',  ( -3.491481338843133355E-15, 1.224646799147352961E-16, -1.000000000000000000 ) ) ;
ENDSEC;
END-ISO-10303-21;
