ISO-10303-21;
HEADER;
FILE_DESCRIPTION (( 'STEP AP203' ),
    '1' );
FILE_NAME ('200052.step',
    '2021-11-29T14:58:39',
    ( '' ),
    ( '' ),
    'SwSTEP 2.0',
    'SolidWorks 2019',
    '' );
FILE_SCHEMA (( 'CONFIG_CONTROL_DESIGN' ));
ENDSEC;

DATA;
#1 = ADVANCED_FACE ( 'NONE', ( #235 ), #262, .T. ) ;
#2 = DIRECTION ( 'NONE',  ( 4.275831445896957731E-31, 1.000000000000000000, 1.224646799147352714E-16 ) ) ;
#3 = CARTESIAN_POINT ( 'NONE',  ( 2.444036937190193349E-14, 5.612850986611987099E-33, 7.000000000000000000 ) ) ;
#4 = ADVANCED_FACE ( 'NONE', ( #284, #160 ), #257, .T. ) ;
#5 = APPROVAL_PERSON_ORGANIZATION ( #184, #19, #273 ) ;
#6 = EDGE_LOOP ( 'NONE', ( #57 ) ) ;
#7 = DIRECTION ( 'NONE',  ( 5.146105395824283314E-31, 1.000000000000000000, 1.448499896440221322E-16 ) ) ;
#8 = CC_DESIGN_PERSON_AND_ORGANIZATION_ASSIGNMENT ( #208, #225, ( #49 ) ) ;
#9 = CIRCLE ( 'NONE', #200, 0.6803844939755818721 ) ;
#10 = CALENDAR_DATE ( 2021, 29, 11 ) ;
#11 = DIRECTION ( 'NONE',  ( -3.491481338843133355E-15, 1.224646799147352961E-16, -1.000000000000000000 ) ) ;
#12 = DIRECTION ( 'NONE',  ( -3.491481338843133355E-15, 1.224646799147352961E-16, -1.000000000000000000 ) ) ;
#13 = CYLINDRICAL_SURFACE ( 'NONE', #301, 1.500000000000000444 ) ;
#14 = EDGE_CURVE ( 'NONE', #69, #69, #286, .T. ) ;
#15 = CARTESIAN_POINT ( 'NONE',  ( 2.503604054454860941E-14, 0.6499999999999981348, 7.170607004545539453 ) ) ;
#16 = CONICAL_SURFACE ( 'NONE', #166, 1.200000000000003286, 0.7853981633974453924 ) ;
#17 = APPROVAL_STATUS ( 'not_yet_approved' ) ;
#18 = MANIFOLD_SOLID_BREP ( 'Corps-Déplacer/Copier1[2]', #73 ) ;
#19 = APPROVAL ( #17, 'UNSPECIFIED' ) ;
#20 = FACE_BOUND ( 'NONE', #263, .T. ) ;
#21 = EDGE_LOOP ( 'NONE', ( #153 ) ) ;
#22 =( GEOMETRIC_REPRESENTATION_CONTEXT ( 3 ) GLOBAL_UNCERTAINTY_ASSIGNED_CONTEXT ( ( #39 ) ) GLOBAL_UNIT_ASSIGNED_CONTEXT ( ( #139, #230, #221 ) ) REPRESENTATION_CONTEXT ( 'NONE', 'WORKASPACE' ) );
#23 = DIRECTION ( 'NONE',  ( -3.491481338843133355E-15, 1.224646799147352961E-16, -1.000000000000000000 ) ) ;
#24 = ORIENTED_EDGE ( 'NONE', *, *, #239, .T. ) ;
#25 = CARTESIAN_POINT ( 'NONE',  ( 6.981414859920802045E-14, -2.448750696904670809E-15, 19.99556687372707486 ) ) ;
#26 = FACE_OUTER_BOUND ( 'NONE', #21, .T. ) ;
#27 = CIRCLE ( 'NONE', #212, 0.7485000000000000542 ) ;
#28 = EDGE_LOOP ( 'NONE', ( #209 ) ) ;
#29 = CONICAL_SURFACE ( 'NONE', #279, 0.6499999999999990230, 0.5235987755982918213 ) ;
#30 = DIRECTION ( 'NONE',  ( 0.0000000000000000000, 1.000000000000000000, 0.0000000000000000000 ) ) ;
#31 = EDGE_CURVE ( 'NONE', #204, #204, #193, .T. ) ;
#32 = CARTESIAN_POINT ( 'NONE',  ( 5.237222008264700033E-14, -1.734723475976807094E-15, 15.00000000000000000 ) ) ;
#33 = DATE_AND_TIME ( #84, #179 ) ;
#34 = VERTEX_POINT ( 'NONE', #287 ) ;
#35 = DIRECTION ( 'NONE',  ( 0.0000000000000000000, 1.000000000000000000, 0.0000000000000000000 ) ) ;
#36 = COORDINATED_UNIVERSAL_TIME_OFFSET ( 1, 0, .AHEAD. ) ;
#37 = TOROIDAL_SURFACE ( 'NONE', #151, 2.649999999999999911, 2.000000000000000000 ) ;
#38 = VERTEX_POINT ( 'NONE', #106 ) ;
#39 = UNCERTAINTY_MEASURE_WITH_UNIT (LENGTH_MEASURE( 1.000000000000000082E-05 ), #139, 'distance_accuracy_value', 'NONE');
#40 = DIRECTION ( 'NONE',  ( 1.000000000000000000, 0.0000000000000000000, 0.0000000000000000000 ) ) ;
#41 = PLANE ( 'NONE',  #58 ) ;
#42 = CC_DESIGN_PERSON_AND_ORGANIZATION_ASSIGNMENT ( #130, #229, ( #148 ) ) ;
#43 = CALENDAR_DATE ( 2021, 29, 11 ) ;
#44 = FACE_OUTER_BOUND ( 'NONE', #123, .T. ) ;
#45 = DATE_TIME_ROLE ( 'classification_date' ) ;
#46 = PRODUCT_DEFINITION ( 'UNKNOWN', '', #49, #292 ) ;
#47 = DIRECTION ( 'NONE',  ( -3.491481338843133355E-15, 1.224646799147352961E-16, -1.000000000000000000 ) ) ;
#48 = ORIENTED_EDGE ( 'NONE', *, *, #31, .F. ) ;
#49 = PRODUCT_DEFINITION_FORMATION_WITH_SPECIFIED_SOURCE ( 'ANY', '', #53, .NOT_KNOWN. ) ;
#50 = LOCAL_TIME ( 15, 58, 39.00000000000000000, #68 ) ;
#51 = CC_DESIGN_PERSON_AND_ORGANIZATION_ASSIGNMENT ( #251, #270, ( #46 ) ) ;
#52 = CYLINDRICAL_SURFACE ( 'NONE', #107, 0.6499999999999995781 ) ;
#53 = PRODUCT ( '200052', '200052', '', ( #155 ) ) ;
#54 = ORIENTED_EDGE ( 'NONE', *, *, #102, .F. ) ;
#55 = CC_DESIGN_DATE_AND_TIME_ASSIGNMENT ( #62, #45, ( #148 ) ) ;
#56 = DIRECTION ( 'NONE',  ( 3.491481338843133355E-15, -1.224646799147352961E-16, 1.000000000000000000 ) ) ;
#57 = ORIENTED_EDGE ( 'NONE', *, *, #164, .T. ) ;
#58 = AXIS2_PLACEMENT_3D ( 'NONE', #137, #60, #128 ) ;
#59 = DIRECTION ( 'NONE',  ( 4.275831445896957731E-31, 1.000000000000000000, 1.224646799147353207E-16 ) ) ;
#60 = DIRECTION ( 'NONE',  ( 3.491481338843133355E-15, -1.224646799147352961E-16, 1.000000000000000000 ) ) ;
#61 = COORDINATED_UNIVERSAL_TIME_OFFSET ( 1, 0, .AHEAD. ) ;
#62 = DATE_AND_TIME ( #10, #50 ) ;
#63 = AXIS2_PLACEMENT_3D ( 'NONE', #144, #95, #188 ) ;
#64 = CC_DESIGN_PERSON_AND_ORGANIZATION_ASSIGNMENT ( #289, #88, ( #53 ) ) ;
#65 = DIRECTION ( 'NONE',  ( -3.491481338843133355E-15, 1.224646799147352961E-16, -1.000000000000000000 ) ) ;
#66 = APPROVAL_DATE_TIME ( #33, #19 ) ;
#67 = VERTEX_POINT ( 'NONE', #131 ) ;
#68 = COORDINATED_UNIVERSAL_TIME_OFFSET ( 1, 0, .AHEAD. ) ;
#69 = VERTEX_POINT ( 'NONE', #202 ) ;
#70 = AXIS2_PLACEMENT_3D ( 'NONE', #149, #191, #99 ) ;
#71 = CARTESIAN_POINT ( 'NONE',  ( 5.358479882634336420E-14, -1.879501735712543302E-15, 15.34729635533384773 ) ) ;
#72 = CARTESIAN_POINT ( 'NONE',  ( 2.503604054454860941E-14, -8.781460916060284025E-16, 7.170607004545539453 ) ) ;
#73 = CLOSED_SHELL ( 'NONE', ( #256, #4, #104, #1 ) ) ;
#74 = AXIS2_PLACEMENT_3D ( 'NONE', #195, #259, #124 ) ;
#75 = ADVANCED_BREP_SHAPE_REPRESENTATION ( '200052', ( #125, #18, #266 ), #22 ) ;
#76 = FACE_BOUND ( 'NONE', #28, .T. ) ;
#77 = CC_DESIGN_DATE_AND_TIME_ASSIGNMENT ( #159, #299, ( #46 ) ) ;
#78 = LOCAL_TIME ( 15, 58, 39.00000000000000000, #136 ) ;
#79 = EDGE_LOOP ( 'NONE', ( #90 ) ) ;
#80 = DIRECTION ( 'NONE',  ( -3.491481338843133355E-15, 1.224646799147352961E-16, -1.000000000000000000 ) ) ;
#81 = EDGE_LOOP ( 'NONE', ( #240 ) ) ;
#82 = AXIS2_PLACEMENT_3D ( 'NONE', #110, #65, #35 ) ;
#83 = FACE_OUTER_BOUND ( 'NONE', #258, .T. ) ;
#84 = CALENDAR_DATE ( 2021, 29, 11 ) ;
#85 = ADVANCED_FACE ( 'NONE', ( #201 ), #129, .F. ) ;
#86 = PLANE ( 'NONE',  #186 ) ;
#87 = CIRCLE ( 'NONE', #63, 1.200000000000003286 ) ;
#88 = PERSON_AND_ORGANIZATION_ROLE ( 'design_owner' ) ;
#89 = VERTEX_POINT ( 'NONE', #268 ) ;
#90 = ORIENTED_EDGE ( 'NONE', *, *, #185, .F. ) ;
#91 = APPROVAL_DATE_TIME ( #267, #93 ) ;
#92 = DIRECTION ( 'NONE',  ( 0.0000000000000000000, 1.000000000000000000, 0.0000000000000000000 ) ) ;
#93 = APPROVAL ( #246, 'UNSPECIFIED' ) ;
#94 = CALENDAR_DATE ( 2021, 29, 11 ) ;
#95 = DIRECTION ( 'NONE',  ( -3.491481338843133355E-15, 1.224646799147352961E-16, -1.000000000000000000 ) ) ;
#96 = EDGE_LOOP ( 'NONE', ( #48 ) ) ;
#97 = ORIENTED_EDGE ( 'NONE', *, *, #194, .F. ) ;
#98 = APPROVAL ( #177, 'UNSPECIFIED' ) ;
#99 = DIRECTION ( 'NONE',  ( 0.0000000000000000000, -1.000000000000000000, 0.0000000000000000000 ) ) ;
#100 = CONICAL_SURFACE ( 'NONE', #70, 1.499999999999997780, 0.1745329251994259812 ) ;
#101 = DIRECTION ( 'NONE',  ( 0.0000000000000000000, 1.000000000000000000, 0.0000000000000000000 ) ) ;
#102 = EDGE_CURVE ( 'NONE', #109, #109, #231, .T. ) ;
#103 = CC_DESIGN_APPROVAL ( #98, ( #49 ) ) ;
#104 = ADVANCED_FACE ( 'NONE', ( #83, #174 ), #264, .T. ) ;
#105 = DIRECTION ( 'NONE',  ( -4.275831445896957731E-31, -1.000000000000000000, -1.224646799147352961E-16 ) ) ;
#106 = CARTESIAN_POINT ( 'NONE',  ( 5.237222008264700033E-14, 0.6499999999999982458, 15.00000000000000000 ) ) ;
#107 = AXIS2_PLACEMENT_3D ( 'NONE', #150, #216, #2 ) ;
#108 = DIRECTION ( 'NONE',  ( 3.491481338843133355E-15, -1.224646799147352961E-16, 1.000000000000000000 ) ) ;
#109 = VERTEX_POINT ( 'NONE', #15 ) ;
#110 = CARTESIAN_POINT ( 'NONE',  ( 2.444036937190193349E-14, -8.572527594031471218E-16, 7.000000000000000000 ) ) ;
#111 = APPROVAL_DATE_TIME ( #134, #98 ) ;
#112 = DIRECTION ( 'NONE',  ( 4.275831445896957731E-31, 1.000000000000000000, 1.224646799147352961E-16 ) ) ;
#113 = AXIS2_PLACEMENT_3D ( 'NONE', #290, #219, #283 ) ;
#114 = VERTEX_POINT ( 'NONE', #178 ) ;
#115 = EDGE_CURVE ( 'NONE', #291, #291, #9, .T. ) ;
#116 = DIRECTION ( 'NONE',  ( 4.275831445896957731E-31, 1.000000000000000000, 1.224646799147353207E-16 ) ) ;
#117 = COORDINATED_UNIVERSAL_TIME_OFFSET ( 1, 0, .AHEAD. ) ;
#118 = EDGE_LOOP ( 'NONE', ( #211 ) ) ;
#119 = EDGE_LOOP ( 'NONE', ( #232 ) ) ;
#120 = DIRECTION ( 'NONE',  ( -3.491481338843133355E-15, 1.224646799147352961E-16, -1.000000000000000000 ) ) ;
#121 = LOCAL_TIME ( 15, 58, 39.00000000000000000, #36 ) ;
#122 = DIRECTION ( 'NONE',  ( -3.491481338843133355E-15, 1.224646799147352961E-16, -1.000000000000000000 ) ) ;
#123 = EDGE_LOOP ( 'NONE', ( #192 ) ) ;
#124 = DIRECTION ( 'NONE',  ( 0.0000000000000000000, 1.000000000000000000, 0.0000000000000000000 ) ) ;
#125 = MANIFOLD_SOLID_BREP ( 'Corps-Déplacer/Copier1[1]', #169 ) ;
#126 = DIRECTION ( 'NONE',  ( -3.491481338843133355E-15, 1.224646799147352961E-16, -1.000000000000000000 ) ) ;
#127 = PERSON ( 'UNSPECIFIED', 'UNSPECIFIED', 'UNSPECIFIED', ('UNSPECIFIED'), ('UNSPECIFIED'), ('UNSPECIFIED') ) ;
#128 = DIRECTION ( 'NONE',  ( -4.275831445896957731E-31, -1.000000000000000000, -1.224646799147352961E-16 ) ) ;
#129 = PLANE ( 'NONE',  #113 ) ;
#130 = PERSON_AND_ORGANIZATION ( #127, #222 ) ;
#131 = CARTESIAN_POINT ( 'NONE',  ( 6.981414859920802045E-14, 1.499999999999995559, 19.99556687372707486 ) ) ;
#132 = CC_DESIGN_APPROVAL ( #93, ( #46 ) ) ;
#133 = EDGE_LOOP ( 'NONE', ( #253 ) ) ;
#134 = DATE_AND_TIME ( #293, #121 ) ;
#135 = CARTESIAN_POINT ( 'NONE',  ( 8.728703347107831416E-16, -3.061616997868381785E-17, 0.2499999999999999445 ) ) ;
#136 = COORDINATED_UNIVERSAL_TIME_OFFSET ( 1, 0, .AHEAD. ) ;
#137 = CARTESIAN_POINT ( 'NONE',  ( -1.291648364089679379E-31, 4.530492593812511604E-33, -3.699427946871553338E-17 ) ) ;
#138 = PERSON_AND_ORGANIZATION ( #127, #222 ) ;
#139 =( LENGTH_UNIT ( ) NAMED_UNIT ( * ) SI_UNIT ( .MILLI., .METRE. ) );
#140 = DIRECTION ( 'NONE',  ( 4.275831445896957731E-31, 1.000000000000000000, 1.224646799147352961E-16 ) ) ;
#141 = CIRCLE ( 'NONE', #243, 0.7484999999999991660 ) ;
#142 = APPROVAL_ROLE ( '' ) ;
#143 = CC_DESIGN_PERSON_AND_ORGANIZATION_ASSIGNMENT ( #180, #206, ( #49 ) ) ;
#144 = CARTESIAN_POINT ( 'NONE',  ( 1.326762908760390423E-13, -4.653657836759941152E-15, 38.00000000000000000 ) ) ;
#145 = PRODUCT_DEFINITION_SHAPE ( 'NONE', 'NONE',  #46 ) ;
#146 = EDGE_CURVE ( 'NONE', #34, #34, #87, .T. ) ;
#147 = CARTESIAN_POINT ( 'NONE',  ( 0.0000000000000000000, 0.0000000000000000000, 0.0000000000000000000 ) ) ;
#148 = SECURITY_CLASSIFICATION ( '', '', #233 ) ;
#149 = CARTESIAN_POINT ( 'NONE',  ( 6.981414859920802045E-14, -2.448750696904670809E-15, 19.99556687372707486 ) ) ;
#150 = CARTESIAN_POINT ( 'NONE',  ( 0.0000000000000000000, 0.0000000000000000000, 0.0000000000000000000 ) ) ;
#151 = AXIS2_PLACEMENT_3D ( 'NONE', #32, #11, #199 ) ;
#152 = ORIENTED_EDGE ( 'NONE', *, *, #282, .F. ) ;
#153 = ORIENTED_EDGE ( 'NONE', *, *, #194, .T. ) ;
#154 = CIRCLE ( 'NONE', #74, 0.6500000000000001332 ) ;
#155 = MECHANICAL_CONTEXT ( 'NONE', #223, 'mechanical' ) ;
#156 = ADVANCED_FACE ( 'NONE', ( #167, #255 ), #13, .T. ) ;
#157 = FACE_OUTER_BOUND ( 'NONE', #214, .T. ) ;
#158 = DIRECTION ( 'NONE',  ( -5.146105395824283314E-31, -1.000000000000000000, -1.448499896440221322E-16 ) ) ;
#159 = DATE_AND_TIME ( #43, #196 ) ;
#160 = FACE_OUTER_BOUND ( 'NONE', #238, .T. ) ;
#161 = AXIS2_PLACEMENT_3D ( 'NONE', #190, #122, #140 ) ;
#162 = APPLICATION_PROTOCOL_DEFINITION ( 'international standard', 'config_control_design', 1994, #223 ) ;
#163 = CARTESIAN_POINT ( 'NONE',  ( 8.728703347107835360E-16, 0.7484999999999991660, 0.2500000000000000555 ) ) ;
#164 = EDGE_CURVE ( 'NONE', #89, #89, #205, .T. ) ;
#165 = DIRECTION ( 'NONE',  ( 0.0000000000000000000, 0.0000000000000000000, 1.000000000000000000 ) ) ;
#166 = AXIS2_PLACEMENT_3D ( 'NONE', #245, #252, #271 ) ;
#167 = FACE_OUTER_BOUND ( 'NONE', #79, .T. ) ;
#168 = ADVANCED_FACE ( 'NONE', ( #269, #20 ), #29, .T. ) ;
#169 = CLOSED_SHELL ( 'NONE', ( #85, #168, #210, #226, #173, #156, #215, #260 ) ) ;
#170 = EDGE_LOOP ( 'NONE', ( #197 ) ) ;
#171 = AXIS2_PLACEMENT_3D ( 'NONE', #224, #108, #158 ) ;
#172 = CIRCLE ( 'NONE', #175, 1.499999999999997780 ) ;
#173 = ADVANCED_FACE ( 'NONE', ( #278, #298 ), #100, .T. ) ;
#174 = FACE_OUTER_BOUND ( 'NONE', #118, .T. ) ;
#175 = AXIS2_PLACEMENT_3D ( 'NONE', #25, #272, #101 ) ;
#176 = CARTESIAN_POINT ( 'NONE',  ( 5.358479882634336420E-14, 0.6803844939755800958, 15.34729635533384773 ) ) ;
#177 = APPROVAL_STATUS ( 'not_yet_approved' ) ;
#178 = CARTESIAN_POINT ( 'NONE',  ( 2.444036937190193349E-14, 0.7484999999999991660, 7.000000000000000000 ) ) ;
#179 = LOCAL_TIME ( 15, 58, 39.00000000000000000, #117 ) ;
#180 = PERSON_AND_ORGANIZATION ( #127, #222 ) ;
#181 = DIRECTION ( 'NONE',  ( -3.491481338843133355E-15, 1.224646799147352961E-16, -1.000000000000000000 ) ) ;
#182 = CARTESIAN_POINT ( 'NONE',  ( 2.444036937190193349E-14, -8.572527594031471218E-16, 7.000000000000000000 ) ) ;
#183 = APPLICATION_CONTEXT ( 'configuration controlled 3d designs of mechanical parts and assemblies' ) ;
#184 = PERSON_AND_ORGANIZATION ( #127, #222 ) ;
#185 = EDGE_CURVE ( 'NONE', #67, #67, #172, .T. ) ;
#186 = AXIS2_PLACEMENT_3D ( 'NONE', #220, #12, #112 ) ;
#187 = ORIENTED_EDGE ( 'NONE', *, *, #14, .T. ) ;
#188 = DIRECTION ( 'NONE',  ( 0.0000000000000000000, 1.000000000000000000, 0.0000000000000000000 ) ) ;
#189 = EDGE_LOOP ( 'NONE', ( #97 ) ) ;
#190 = CARTESIAN_POINT ( 'NONE',  ( 0.0000000000000000000, 0.0000000000000000000, 0.0000000000000000000 ) ) ;
#191 = DIRECTION ( 'NONE',  ( 3.491481338843133355E-15, -1.224646799147352961E-16, 1.000000000000000000 ) ) ;
#192 = ORIENTED_EDGE ( 'NONE', *, *, #115, .T. ) ;
#193 = CIRCLE ( 'NONE', #82, 0.7485000000000000542 ) ;
#194 = EDGE_CURVE ( 'NONE', #38, #38, #154, .T. ) ;
#195 = CARTESIAN_POINT ( 'NONE',  ( 5.237222008264700033E-14, -1.836970198721029194E-15, 15.00000000000000000 ) ) ;
#196 = LOCAL_TIME ( 15, 58, 39.00000000000000000, #61 ) ;
#197 = ORIENTED_EDGE ( 'NONE', *, *, #115, .F. ) ;
#198 = CARTESIAN_POINT ( 'NONE',  ( 2.503604054454860941E-14, -8.781460916060284025E-16, 7.170607004545539453 ) ) ;
#199 = DIRECTION ( 'NONE',  ( 4.275831445896957731E-31, 1.000000000000000000, 1.224646799147352961E-16 ) ) ;
#200 = AXIS2_PLACEMENT_3D ( 'NONE', #71, #23, #276 ) ;
#201 = FACE_OUTER_BOUND ( 'NONE', #236, .T. ) ;
#202 = CARTESIAN_POINT ( 'NONE',  ( 0.0000000000000000000, 0.6041624327025946206, 0.0000000000000000000 ) ) ;
#203 = APPLICATION_PROTOCOL_DEFINITION ( 'international standard', 'config_control_design', 1994, #183 ) ;
#204 = VERTEX_POINT ( 'NONE', #294 ) ;
#205 = CIRCLE ( 'NONE', #274, 1.500000000000003331 ) ;
#206 = PERSON_AND_ORGANIZATION_ROLE ( 'design_supplier' ) ;
#207 = FACE_OUTER_BOUND ( 'NONE', #189, .T. ) ;
#208 = PERSON_AND_ORGANIZATION ( #127, #222 ) ;
#209 = ORIENTED_EDGE ( 'NONE', *, *, #146, .T. ) ;
#210 = ADVANCED_FACE ( 'NONE', ( #241, #26 ), #52, .T. ) ;
#211 = ORIENTED_EDGE ( 'NONE', *, *, #31, .T. ) ;
#212 = AXIS2_PLACEMENT_3D ( 'NONE', #182, #181, #92 ) ;
#213 = DIRECTION ( 'NONE',  ( 0.0000000000000000000, 1.000000000000000000, 0.0000000000000000000 ) ) ;
#214 = EDGE_LOOP ( 'NONE', ( #187 ) ) ;
#215 = ADVANCED_FACE ( 'NONE', ( #280, #76 ), #16, .T. ) ;
#216 = DIRECTION ( 'NONE',  ( -3.491481338843133355E-15, 1.224646799147352961E-16, -1.000000000000000000 ) ) ;
#217 = CC_DESIGN_SECURITY_CLASSIFICATION ( #148, ( #49 ) ) ;
#218 = CC_DESIGN_APPROVAL ( #19, ( #148 ) ) ;
#219 = DIRECTION ( 'NONE',  ( 3.491481338843133355E-15, -1.224646799147352961E-16, 1.000000000000000000 ) ) ;
#220 = CARTESIAN_POINT ( 'NONE',  ( 1.326762908760390423E-13, 8.998558695971099120E-33, 38.00000000000000000 ) ) ;
#221 =( NAMED_UNIT ( * ) SI_UNIT ( $, .STERADIAN. ) SOLID_ANGLE_UNIT ( ) );
#222 = ORGANIZATION ( 'UNSPECIFIED', 'UNSPECIFIED', '' ) ;
#223 = APPLICATION_CONTEXT ( 'configuration controlled 3d designs of mechanical parts and assemblies' ) ;
#224 = CARTESIAN_POINT ( 'NONE',  ( 8.728703347107831416E-16, -3.061616997868381785E-17, 0.2499999999999999445 ) ) ;
#225 = PERSON_AND_ORGANIZATION_ROLE ( 'creator' ) ;
#226 = ADVANCED_FACE ( 'NONE', ( #207, #44 ), #37, .F. ) ;
#227 = PERSON_AND_ORGANIZATION ( #127, #222 ) ;
#228 = FACE_OUTER_BOUND ( 'NONE', #119, .T. ) ;
#229 = PERSON_AND_ORGANIZATION_ROLE ( 'classification_officer' ) ;
#230 =( NAMED_UNIT ( * ) PLANE_ANGLE_UNIT ( ) SI_UNIT ( $, .RADIAN. ) );
#231 = CIRCLE ( 'NONE', #237, 0.6499999999999990230 ) ;
#232 = ORIENTED_EDGE ( 'NONE', *, *, #146, .F. ) ;
#233 = SECURITY_CLASSIFICATION_LEVEL ( 'unclassified' ) ;
#234 = CARTESIAN_POINT ( 'NONE',  ( 1.316288464743861212E-13, -4.616918432785520292E-15, 37.69999999999999574 ) ) ;
#235 = FACE_OUTER_BOUND ( 'NONE', #96, .T. ) ;
#236 = EDGE_LOOP ( 'NONE', ( #24 ) ) ;
#237 = AXIS2_PLACEMENT_3D ( 'NONE', #198, #80, #30 ) ;
#238 = EDGE_LOOP ( 'NONE', ( #277 ) ) ;
#239 = EDGE_CURVE ( 'NONE', #114, #114, #27, .T. ) ;
#240 = ORIENTED_EDGE ( 'NONE', *, *, #185, .T. ) ;
#241 = FACE_OUTER_BOUND ( 'NONE', #285, .T. ) ;
#242 = AXIS2_PLACEMENT_3D ( 'NONE', #3, #56, #105 ) ;
#243 = AXIS2_PLACEMENT_3D ( 'NONE', #135, #247, #7 ) ;
#244 = CARTESIAN_POINT ( 'NONE',  ( -2.583296728179358758E-31, 9.060985187625023207E-33, -7.398855893743106675E-17 ) ) ;
#245 = CARTESIAN_POINT ( 'NONE',  ( 1.326762908760390423E-13, -4.653657836759941152E-15, 38.00000000000000000 ) ) ;
#246 = APPROVAL_STATUS ( 'not_yet_approved' ) ;
#247 = DIRECTION ( 'NONE',  ( -3.491481338843133355E-15, 1.224646799147352961E-16, -1.000000000000000000 ) ) ;
#248 = APPROVAL_ROLE ( '' ) ;
#249 = APPROVAL_PERSON_ORGANIZATION ( #138, #98, #248 ) ;
#250 = CARTESIAN_POINT ( 'NONE',  ( 0.0000000000000000000, 0.0000000000000000000, 0.0000000000000000000 ) ) ;
#251 = PERSON_AND_ORGANIZATION ( #127, #222 ) ;
#252 = DIRECTION ( 'NONE',  ( -3.491481338843133355E-15, 1.224646799147352961E-16, -1.000000000000000000 ) ) ;
#253 = ORIENTED_EDGE ( 'NONE', *, *, #14, .F. ) ;
#254 = DIRECTION ( 'NONE',  ( -3.491481338843133355E-15, 1.224646799147352961E-16, -1.000000000000000000 ) ) ;
#255 = FACE_OUTER_BOUND ( 'NONE', #6, .T. ) ;
#256 = ADVANCED_FACE ( 'NONE', ( #157 ), #41, .F. ) ;
#257 = CONICAL_SURFACE ( 'NONE', #171, 0.7484999999999991660, 0.5235987755982930425 ) ;
#258 = EDGE_LOOP ( 'NONE', ( #152 ) ) ;
#259 = DIRECTION ( 'NONE',  ( -3.491481338843133355E-15, 1.224646799147352961E-16, -1.000000000000000000 ) ) ;
#260 = ADVANCED_FACE ( 'NONE', ( #228 ), #86, .F. ) ;
#261 = APPROVAL_PERSON_ORGANIZATION ( #227, #93, #142 ) ;
#262 = PLANE ( 'NONE',  #242 ) ;
#263 = EDGE_LOOP ( 'NONE', ( #303 ) ) ;
#264 = CYLINDRICAL_SURFACE ( 'NONE', #161, 0.7484999999999996101 ) ;
#265 = SHAPE_DEFINITION_REPRESENTATION ( #145, #75 ) ;
#266 = AXIS2_PLACEMENT_3D ( 'NONE', #250, #165, #40 ) ;
#267 = DATE_AND_TIME ( #94, #78 ) ;
#268 = CARTESIAN_POINT ( 'NONE',  ( 1.316288464743861212E-13, 1.499999999999998668, 37.69999999999999574 ) ) ;
#269 = FACE_OUTER_BOUND ( 'NONE', #281, .T. ) ;
#270 = PERSON_AND_ORGANIZATION_ROLE ( 'creator' ) ;
#271 = DIRECTION ( 'NONE',  ( 0.0000000000000000000, 1.000000000000000000, 0.0000000000000000000 ) ) ;
#272 = DIRECTION ( 'NONE',  ( -3.491481338843133355E-15, 1.224646799147352961E-16, -1.000000000000000000 ) ) ;
#273 = APPROVAL_ROLE ( '' ) ;
#274 = AXIS2_PLACEMENT_3D ( 'NONE', #234, #47, #296 ) ;
#275 = EDGE_LOOP ( 'NONE', ( #302 ) ) ;
#276 = DIRECTION ( 'NONE',  ( 0.0000000000000000000, 1.000000000000000000, 0.0000000000000000000 ) ) ;
#277 = ORIENTED_EDGE ( 'NONE', *, *, #282, .T. ) ;
#278 = FACE_BOUND ( 'NONE', #170, .T. ) ;
#279 = AXIS2_PLACEMENT_3D ( 'NONE', #72, #120, #213 ) ;
#280 = FACE_OUTER_BOUND ( 'NONE', #275, .T. ) ;
#281 = EDGE_LOOP ( 'NONE', ( #300 ) ) ;
#282 = EDGE_CURVE ( 'NONE', #297, #297, #141, .T. ) ;
#283 = DIRECTION ( 'NONE',  ( -4.275831445896957731E-31, -1.000000000000000000, -1.224646799147352961E-16 ) ) ;
#284 = FACE_BOUND ( 'NONE', #133, .T. ) ;
#285 = EDGE_LOOP ( 'NONE', ( #54 ) ) ;
#286 = CIRCLE ( 'NONE', #295, 0.6041624327025946206 ) ;
#287 = CARTESIAN_POINT ( 'NONE',  ( 1.326762908760390423E-13, 1.199999999999998845, 38.00000000000000000 ) ) ;
#288 = PRODUCT_RELATED_PRODUCT_CATEGORY ( 'detail', '', ( #53 ) ) ;
#289 = PERSON_AND_ORGANIZATION ( #127, #222 ) ;
#290 = CARTESIAN_POINT ( 'NONE',  ( 2.444036937190193349E-14, 5.612850986611987099E-33, 7.000000000000000000 ) ) ;
#291 = VERTEX_POINT ( 'NONE', #176 ) ;
#292 = DESIGN_CONTEXT ( 'detailed design', #183, 'design' ) ;
#293 = CALENDAR_DATE ( 2021, 29, 11 ) ;
#294 = CARTESIAN_POINT ( 'NONE',  ( 2.444036937190193349E-14, 0.7484999999999991660, 7.000000000000000000 ) ) ;
#295 = AXIS2_PLACEMENT_3D ( 'NONE', #244, #126, #59 ) ;
#296 = DIRECTION ( 'NONE',  ( 0.0000000000000000000, 1.000000000000000000, 0.0000000000000000000 ) ) ;
#297 = VERTEX_POINT ( 'NONE', #163 ) ;
#298 = FACE_OUTER_BOUND ( 'NONE', #81, .T. ) ;
#299 = DATE_TIME_ROLE ( 'creation_date' ) ;
#300 = ORIENTED_EDGE ( 'NONE', *, *, #239, .F. ) ;
#301 = AXIS2_PLACEMENT_3D ( 'NONE', #147, #254, #116 ) ;
#302 = ORIENTED_EDGE ( 'NONE', *, *, #164, .F. ) ;
#303 = ORIENTED_EDGE ( 'NONE', *, *, #102, .T. ) ;
ENDSEC;
END-ISO-10303-21;
