ISO-10303-21;
HEADER;
FILE_DESCRIPTION (( 'STEP AP203' ),
    '1' );
FILE_NAME ('200051.step',
    '2021-11-29T14:58:38',
    ( '' ),
    ( '' ),
    'SwSTEP 2.0',
    'SolidWorks 2019',
    '' );
FILE_SCHEMA (( 'CONFIG_CONTROL_DESIGN' ));
ENDSEC;

DATA;
#1 = ORIENTED_EDGE ( 'NONE', *, *, #221, .T. ) ;
#2 = VERTEX_POINT ( 'NONE', #122 ) ;
#3 = ADVANCED_FACE ( 'NONE', ( #106, #171 ), #211, .T. ) ;
#4 = AXIS2_PLACEMENT_3D ( 'NONE', #93, #126, #28 ) ;
#5 = CC_DESIGN_SECURITY_CLASSIFICATION ( #193, ( #83 ) ) ;
#6 = EDGE_LOOP ( 'NONE', ( #39 ) ) ;
#7 = CONICAL_SURFACE ( 'NONE', #12, 0.7434999999999992726, 0.5235987755982927094 ) ;
#8 = PERSON_AND_ORGANIZATION ( #44, #174 ) ;
#9 = AXIS2_PLACEMENT_3D ( 'NONE', #176, #177, #301 ) ;
#10 = DIRECTION ( 'NONE',  ( 0.0000000000000000000, 0.0000000000000000000, 1.000000000000000000 ) ) ;
#11 = EDGE_LOOP ( 'NONE', ( #121 ) ) ;
#12 = AXIS2_PLACEMENT_3D ( 'NONE', #71, #43, #235 ) ;
#13 = APPROVAL_PERSON_ORGANIZATION ( #269, #170, #275 ) ;
#14 = CARTESIAN_POINT ( 'NONE',  ( 2.500580342918582806E-14, -8.770855163673032597E-16, 7.161946750507692805 ) ) ;
#15 = DIRECTION ( 'NONE',  ( 3.491481338843133355E-15, -1.224646799147352961E-16, 1.000000000000000000 ) ) ;
#16 = CARTESIAN_POINT ( 'NONE',  ( 8.728703347107831416E-16, -3.061616997868381785E-17, 0.2499999999999999445 ) ) ;
#17 = DATE_AND_TIME ( #296, #213 ) ;
#18 = DIRECTION ( 'NONE',  ( -3.491481338843133355E-15, 1.224646799147352961E-16, -1.000000000000000000 ) ) ;
#19 = AXIS2_PLACEMENT_3D ( 'NONE', #99, #251, #202 ) ;
#20 = ORIENTED_EDGE ( 'NONE', *, *, #41, .F. ) ;
#21 = CARTESIAN_POINT ( 'NONE',  ( 8.728703347107835360E-16, 0.7434999999999992726, 0.2500000000000000555 ) ) ;
#22 =( LENGTH_UNIT ( ) NAMED_UNIT ( * ) SI_UNIT ( .MILLI., .METRE. ) );
#23 = COORDINATED_UNIVERSAL_TIME_OFFSET ( 1, 0, .AHEAD. ) ;
#24 = ORIENTED_EDGE ( 'NONE', *, *, #92, .T. ) ;
#25 = VERTEX_POINT ( 'NONE', #205 ) ;
#26 = AXIS2_PLACEMENT_3D ( 'NONE', #295, #196, #291 ) ;
#27 = MANIFOLD_SOLID_BREP ( 'Corps-Déplacer/Copier1[2]', #31 ) ;
#28 = DIRECTION ( 'NONE',  ( 4.275831445896957731E-31, 1.000000000000000000, 1.224646799147352961E-16 ) ) ;
#29 = PRODUCT ( '200051', '200051', '', ( #81 ) ) ;
#30 = EDGE_LOOP ( 'NONE', ( #207 ) ) ;
#31 = CLOSED_SHELL ( 'NONE', ( #150, #247, #299, #115 ) ) ;
#32 = APPROVAL_PERSON_ORGANIZATION ( #214, #280, #195 ) ;
#33 = AXIS2_PLACEMENT_3D ( 'NONE', #216, #215, #157 ) ;
#34 = PERSON_AND_ORGANIZATION_ROLE ( 'creator' ) ;
#35 = DIRECTION ( 'NONE',  ( -3.491481338843133355E-15, 1.224646799147352961E-16, -1.000000000000000000 ) ) ;
#36 = FACE_OUTER_BOUND ( 'NONE', #101, .T. ) ;
#37 = PERSON_AND_ORGANIZATION_ROLE ( 'creator' ) ;
#38 = CIRCLE ( 'NONE', #57, 0.6500000000000001332 ) ;
#39 = ORIENTED_EDGE ( 'NONE', *, *, #82, .F. ) ;
#40 = DIRECTION ( 'NONE',  ( -3.491481338843133355E-15, 1.224646799147352961E-16, -1.000000000000000000 ) ) ;
#41 = EDGE_CURVE ( 'NONE', #231, #231, #293, .T. ) ;
#42 = CARTESIAN_POINT ( 'NONE',  ( 1.326762908760390423E-13, -4.653657836759941152E-15, 38.00000000000000000 ) ) ;
#43 = DIRECTION ( 'NONE',  ( 3.491481338843133355E-15, -1.224646799147352961E-16, 1.000000000000000000 ) ) ;
#44 = PERSON ( 'UNSPECIFIED', 'UNSPECIFIED', 'UNSPECIFIED', ('UNSPECIFIED'), ('UNSPECIFIED'), ('UNSPECIFIED') ) ;
#45 = EDGE_LOOP ( 'NONE', ( #201 ) ) ;
#46 = FACE_OUTER_BOUND ( 'NONE', #273, .T. ) ;
#47 = PRODUCT_DEFINITION ( 'UNKNOWN', '', #83, #167 ) ;
#48 = COORDINATED_UNIVERSAL_TIME_OFFSET ( 1, 0, .AHEAD. ) ;
#49 = CYLINDRICAL_SURFACE ( 'NONE', #19, 0.7434999999999997167 ) ;
#50 = ORIENTED_EDGE ( 'NONE', *, *, #41, .T. ) ;
#51 = CARTESIAN_POINT ( 'NONE',  ( 2.444036937190193349E-14, 5.575356992045441754E-33, 7.000000000000000000 ) ) ;
#52 = APPROVAL_PERSON_ORGANIZATION ( #8, #197, #58 ) ;
#53 = CYLINDRICAL_SURFACE ( 'NONE', #94, 0.6499999999999996891 ) ;
#54 = CC_DESIGN_PERSON_AND_ORGANIZATION_ASSIGNMENT ( #285, #183, ( #193 ) ) ;
#55 = EDGE_LOOP ( 'NONE', ( #76 ) ) ;
#56 = DIRECTION ( 'NONE',  ( 1.000000000000000000, 0.0000000000000000000, 0.0000000000000000000 ) ) ;
#57 = AXIS2_PLACEMENT_3D ( 'NONE', #242, #35, #134 ) ;
#58 = APPROVAL_ROLE ( '' ) ;
#59 = APPLICATION_PROTOCOL_DEFINITION ( 'international standard', 'config_control_design', 1994, #238 ) ;
#60 = AXIS2_PLACEMENT_3D ( 'NONE', #155, #292, #270 ) ;
#61 = ADVANCED_FACE ( 'NONE', ( #36 ), #70, .F. ) ;
#62 = DATE_AND_TIME ( #108, #65 ) ;
#63 = DIRECTION ( 'NONE',  ( 0.0000000000000000000, 1.000000000000000000, 0.0000000000000000000 ) ) ;
#64 = DIRECTION ( 'NONE',  ( 3.491481338843133355E-15, -1.224646799147352961E-16, 1.000000000000000000 ) ) ;
#65 = LOCAL_TIME ( 15, 58, 38.00000000000000000, #111 ) ;
#66 = FACE_BOUND ( 'NONE', #55, .T. ) ;
#67 = ADVANCED_FACE ( 'NONE', ( #88, #138 ), #254, .T. ) ;
#68 = DATE_AND_TIME ( #156, #212 ) ;
#69 = CARTESIAN_POINT ( 'NONE',  ( 5.358479882634336420E-14, -1.879501735712543302E-15, 15.34729635533384773 ) ) ;
#70 = PLANE ( 'NONE',  #26 ) ;
#71 = CARTESIAN_POINT ( 'NONE',  ( 8.728703347107831416E-16, -3.061616997868381785E-17, 0.2499999999999999445 ) ) ;
#72 = AXIS2_PLACEMENT_3D ( 'NONE', #222, #15, #107 ) ;
#73 = DIRECTION ( 'NONE',  ( -4.275831445896957731E-31, -1.000000000000000000, -1.224646799147352961E-16 ) ) ;
#74 = CARTESIAN_POINT ( 'NONE',  ( 2.444036937190193349E-14, 0.7434999999999992726, 7.000000000000000000 ) ) ;
#75 = CIRCLE ( 'NONE', #9, 1.500000000000003331 ) ;
#76 = ORIENTED_EDGE ( 'NONE', *, *, #82, .T. ) ;
#77 = ORIENTED_EDGE ( 'NONE', *, *, #221, .F. ) ;
#78 = EDGE_CURVE ( 'NONE', #297, #297, #260, .T. ) ;
#79 = CIRCLE ( 'NONE', #169, 0.7435000000000001608 ) ;
#80 = COORDINATED_UNIVERSAL_TIME_OFFSET ( 1, 0, .AHEAD. ) ;
#81 = MECHANICAL_CONTEXT ( 'NONE', #238, 'mechanical' ) ;
#82 = EDGE_CURVE ( 'NONE', #2, #2, #239, .T. ) ;
#83 = PRODUCT_DEFINITION_FORMATION_WITH_SPECIFIED_SOURCE ( 'ANY', '', #29, .NOT_KNOWN. ) ;
#84 = DIRECTION ( 'NONE',  ( 0.0000000000000000000, 1.000000000000000000, 0.0000000000000000000 ) ) ;
#85 = CYLINDRICAL_SURFACE ( 'NONE', #100, 1.500000000000000444 ) ;
#86 = APPROVAL_DATE_TIME ( #168, #280 ) ;
#87 = CC_DESIGN_PERSON_AND_ORGANIZATION_ASSIGNMENT ( #229, #90, ( #29 ) ) ;
#88 = FACE_BOUND ( 'NONE', #210, .T. ) ;
#89 = CARTESIAN_POINT ( 'NONE',  ( 2.444036937190193349E-14, 5.575356992045441754E-33, 7.000000000000000000 ) ) ;
#90 = PERSON_AND_ORGANIZATION_ROLE ( 'design_owner' ) ;
#91 = FACE_OUTER_BOUND ( 'NONE', #11, .T. ) ;
#92 = EDGE_CURVE ( 'NONE', #146, #146, #272, .T. ) ;
#93 = CARTESIAN_POINT ( 'NONE',  ( 5.237222008264700033E-14, -1.734723475976807094E-15, 15.00000000000000000 ) ) ;
#94 = AXIS2_PLACEMENT_3D ( 'NONE', #186, #303, #271 ) ;
#95 = FACE_BOUND ( 'NONE', #225, .T. ) ;
#96 = VERTEX_POINT ( 'NONE', #182 ) ;
#97 = CC_DESIGN_PERSON_AND_ORGANIZATION_ASSIGNMENT ( #240, #34, ( #83 ) ) ;
#98 = EDGE_LOOP ( 'NONE', ( #181 ) ) ;
#99 = CARTESIAN_POINT ( 'NONE',  ( 0.0000000000000000000, 0.0000000000000000000, 0.0000000000000000000 ) ) ;
#100 = AXIS2_PLACEMENT_3D ( 'NONE', #175, #159, #245 ) ;
#101 = EDGE_LOOP ( 'NONE', ( #187 ) ) ;
#102 = CIRCLE ( 'NONE', #33, 0.7435000000000001608 ) ;
#103 = UNCERTAINTY_MEASURE_WITH_UNIT (LENGTH_MEASURE( 1.000000000000000082E-05 ), #22, 'distance_accuracy_value', 'NONE');
#104 = EDGE_CURVE ( 'NONE', #144, #144, #38, .T. ) ;
#105 = PERSON_AND_ORGANIZATION_ROLE ( 'design_supplier' ) ;
#106 = FACE_OUTER_BOUND ( 'NONE', #230, .T. ) ;
#107 = DIRECTION ( 'NONE',  ( -4.275831445896957731E-31, -1.000000000000000000, -1.224646799147352961E-16 ) ) ;
#108 = CALENDAR_DATE ( 2021, 29, 11 ) ;
#109 = EDGE_CURVE ( 'NONE', #25, #25, #102, .T. ) ;
#110 = DIRECTION ( 'NONE',  ( 0.0000000000000000000, -1.000000000000000000, 0.0000000000000000000 ) ) ;
#111 = COORDINATED_UNIVERSAL_TIME_OFFSET ( 1, 0, .AHEAD. ) ;
#112 = DIRECTION ( 'NONE',  ( -3.491481338843133355E-15, 1.224646799147352961E-16, -1.000000000000000000 ) ) ;
#113 = TOROIDAL_SURFACE ( 'NONE', #4, 2.649999999999999911, 2.000000000000000000 ) ;
#114 = ORIENTED_EDGE ( 'NONE', *, *, #104, .T. ) ;
#115 = ADVANCED_FACE ( 'NONE', ( #243 ), #136, .T. ) ;
#116 = DATE_AND_TIME ( #252, #257 ) ;
#117 = ORIENTED_EDGE ( 'NONE', *, *, #109, .T. ) ;
#118 = FACE_OUTER_BOUND ( 'NONE', #204, .T. ) ;
#119 = ORIENTED_EDGE ( 'NONE', *, *, #227, .F. ) ;
#120 = FACE_OUTER_BOUND ( 'NONE', #278, .T. ) ;
#121 = ORIENTED_EDGE ( 'NONE', *, *, #190, .T. ) ;
#122 = CARTESIAN_POINT ( 'NONE',  ( 2.500580342918582806E-14, 0.6499999999999983569, 7.161946750507692805 ) ) ;
#123 = APPROVAL_STATUS ( 'not_yet_approved' ) ;
#124 = ADVANCED_FACE ( 'NONE', ( #200, #66 ), #154, .T. ) ;
#125 = PLANE ( 'NONE',  #151 ) ;
#126 = DIRECTION ( 'NONE',  ( -3.491481338843133355E-15, 1.224646799147352961E-16, -1.000000000000000000 ) ) ;
#127 = EDGE_LOOP ( 'NONE', ( #24 ) ) ;
#128 = AXIS2_PLACEMENT_3D ( 'NONE', #42, #40, #287 ) ;
#129 = AXIS2_PLACEMENT_3D ( 'NONE', #89, #265, #160 ) ;
#130 = APPROVAL_DATE_TIME ( #68, #197 ) ;
#131 = CC_DESIGN_PERSON_AND_ORGANIZATION_ASSIGNMENT ( #219, #37, ( #47 ) ) ;
#132 = CARTESIAN_POINT ( 'NONE',  ( 2.500580342918582806E-14, -8.770855163673032597E-16, 7.161946750507692805 ) ) ;
#133 = DATE_TIME_ROLE ( 'creation_date' ) ;
#134 = DIRECTION ( 'NONE',  ( 0.0000000000000000000, 1.000000000000000000, 0.0000000000000000000 ) ) ;
#135 = AXIS2_PLACEMENT_3D ( 'NONE', #261, #64, #110 ) ;
#136 = PLANE ( 'NONE',  #129 ) ;
#137 = DIRECTION ( 'NONE',  ( -3.491481338843133355E-15, 1.224646799147352961E-16, -1.000000000000000000 ) ) ;
#138 = FACE_OUTER_BOUND ( 'NONE', #140, .T. ) ;
#139 = AXIS2_PLACEMENT_3D ( 'NONE', #14, #137, #289 ) ;
#140 = EDGE_LOOP ( 'NONE', ( #50 ) ) ;
#141 = DIRECTION ( 'NONE',  ( 0.0000000000000000000, 1.000000000000000000, 0.0000000000000000000 ) ) ;
#142 = EDGE_LOOP ( 'NONE', ( #228 ) ) ;
#143 = ADVANCED_BREP_SHAPE_REPRESENTATION ( '200051', ( #218, #27, #282 ), #244 ) ;
#144 = VERTEX_POINT ( 'NONE', #279 ) ;
#145 = SHAPE_DEFINITION_REPRESENTATION ( #152, #143 ) ;
#146 = VERTEX_POINT ( 'NONE', #298 ) ;
#147 = CIRCLE ( 'NONE', #199, 0.5991624327025948382 ) ;
#148 = FACE_OUTER_BOUND ( 'NONE', #6, .T. ) ;
#149 = EDGE_LOOP ( 'NONE', ( #20 ) ) ;
#150 = ADVANCED_FACE ( 'NONE', ( #91 ), #220, .F. ) ;
#151 = AXIS2_PLACEMENT_3D ( 'NONE', #51, #255, #73 ) ;
#152 = PRODUCT_DEFINITION_SHAPE ( 'NONE', 'NONE',  #47 ) ;
#153 = CARTESIAN_POINT ( 'NONE',  ( 0.0000000000000000000, 0.0000000000000000000, 0.0000000000000000000 ) ) ;
#154 = CONICAL_SURFACE ( 'NONE', #139, 0.6499999999999992450, 0.5235987755982953740 ) ;
#155 = CARTESIAN_POINT ( 'NONE',  ( 6.981414859920802045E-14, -2.448750696904670809E-15, 19.99556687372707486 ) ) ;
#156 = CALENDAR_DATE ( 2021, 29, 11 ) ;
#157 = DIRECTION ( 'NONE',  ( 0.0000000000000000000, 1.000000000000000000, 0.0000000000000000000 ) ) ;
#158 = SECURITY_CLASSIFICATION_LEVEL ( 'unclassified' ) ;
#159 = DIRECTION ( 'NONE',  ( -3.491481338843133355E-15, 1.224646799147352961E-16, -1.000000000000000000 ) ) ;
#160 = DIRECTION ( 'NONE',  ( -4.275831445896957731E-31, -1.000000000000000000, -1.224646799147352961E-16 ) ) ;
#161 = FACE_OUTER_BOUND ( 'NONE', #185, .T. ) ;
#162 = AXIS2_PLACEMENT_3D ( 'NONE', #241, #267, #84 ) ;
#163 = CARTESIAN_POINT ( 'NONE',  ( 6.981414859920802045E-14, 1.499999999999995559, 19.99556687372707486 ) ) ;
#164 = FACE_OUTER_BOUND ( 'NONE', #142, .T. ) ;
#165 = CLOSED_SHELL ( 'NONE', ( #234, #124, #262, #237, #67, #166, #3, #61 ) ) ;
#166 = ADVANCED_FACE ( 'NONE', ( #194, #223 ), #85, .T. ) ;
#167 = DESIGN_CONTEXT ( 'detailed design', #268, 'design' ) ;
#168 = DATE_AND_TIME ( #290, #249 ) ;
#169 = AXIS2_PLACEMENT_3D ( 'NONE', #208, #226, #141 ) ;
#170 = APPROVAL ( #123, 'UNSPECIFIED' ) ;
#171 = FACE_BOUND ( 'NONE', #302, .T. ) ;
#172 = DIRECTION ( 'NONE',  ( -3.491481338843133355E-15, 1.224646799147352961E-16, -1.000000000000000000 ) ) ;
#173 = CARTESIAN_POINT ( 'NONE',  ( -2.561917570949874919E-31, 8.985997198491933885E-33, -7.337623553785741616E-17 ) ) ;
#174 = ORGANIZATION ( 'UNSPECIFIED', 'UNSPECIFIED', '' ) ;
#175 = CARTESIAN_POINT ( 'NONE',  ( 0.0000000000000000000, 0.0000000000000000000, 0.0000000000000000000 ) ) ;
#176 = CARTESIAN_POINT ( 'NONE',  ( 1.316288464743861212E-13, -4.616918432785520292E-15, 37.69999999999999574 ) ) ;
#177 = DIRECTION ( 'NONE',  ( -3.491481338843133355E-15, 1.224646799147352961E-16, -1.000000000000000000 ) ) ;
#178 = AXIS2_PLACEMENT_3D ( 'NONE', #132, #18, #63 ) ;
#179 = CC_DESIGN_DATE_AND_TIME_ASSIGNMENT ( #17, #294, ( #193 ) ) ;
#180 =( NAMED_UNIT ( * ) PLANE_ANGLE_UNIT ( ) SI_UNIT ( $, .RADIAN. ) );
#181 = ORIENTED_EDGE ( 'NONE', *, *, #253, .F. ) ;
#182 = CARTESIAN_POINT ( 'NONE',  ( 0.0000000000000000000, 0.5991624327025948382, 0.0000000000000000000 ) ) ;
#183 = PERSON_AND_ORGANIZATION_ROLE ( 'classification_officer' ) ;
#184 = VERTEX_POINT ( 'NONE', #74 ) ;
#185 = EDGE_LOOP ( 'NONE', ( #1 ) ) ;
#186 = CARTESIAN_POINT ( 'NONE',  ( 0.0000000000000000000, 0.0000000000000000000, 0.0000000000000000000 ) ) ;
#187 = ORIENTED_EDGE ( 'NONE', *, *, #78, .F. ) ;
#188 = CC_DESIGN_APPROVAL ( #197, ( #47 ) ) ;
#189 = APPROVAL_STATUS ( 'not_yet_approved' ) ;
#190 = EDGE_CURVE ( 'NONE', #96, #96, #147, .T. ) ;
#191 = DIRECTION ( 'NONE',  ( 0.0000000000000000000, 1.000000000000000000, 0.0000000000000000000 ) ) ;
#192 = AXIS2_PLACEMENT_3D ( 'NONE', #69, #198, #191 ) ;
#193 = SECURITY_CLASSIFICATION ( '', '', #158 ) ;
#194 = FACE_OUTER_BOUND ( 'NONE', #149, .T. ) ;
#195 = APPROVAL_ROLE ( '' ) ;
#196 = DIRECTION ( 'NONE',  ( -3.491481338843133355E-15, 1.224646799147352961E-16, -1.000000000000000000 ) ) ;
#197 = APPROVAL ( #258, 'UNSPECIFIED' ) ;
#198 = DIRECTION ( 'NONE',  ( -3.491481338843133355E-15, 1.224646799147352961E-16, -1.000000000000000000 ) ) ;
#199 = AXIS2_PLACEMENT_3D ( 'NONE', #173, #172, #263 ) ;
#200 = FACE_OUTER_BOUND ( 'NONE', #45, .T. ) ;
#201 = ORIENTED_EDGE ( 'NONE', *, *, #109, .F. ) ;
#202 = DIRECTION ( 'NONE',  ( 4.275831445896956855E-31, 1.000000000000000000, 1.224646799147352961E-16 ) ) ;
#203 = VERTEX_POINT ( 'NONE', #250 ) ;
#204 = EDGE_LOOP ( 'NONE', ( #117 ) ) ;
#205 = CARTESIAN_POINT ( 'NONE',  ( 2.444036937190193349E-14, 0.7434999999999992726, 7.000000000000000000 ) ) ;
#206 = APPROVAL_DATE_TIME ( #116, #170 ) ;
#207 = ORIENTED_EDGE ( 'NONE', *, *, #104, .F. ) ;
#208 = CARTESIAN_POINT ( 'NONE',  ( 2.444036937190193349E-14, -8.572527594031471218E-16, 7.000000000000000000 ) ) ;
#209 = CARTESIAN_POINT ( 'NONE',  ( 1.326762908760390423E-13, 1.199999999999998845, 38.00000000000000000 ) ) ;
#210 = EDGE_LOOP ( 'NONE', ( #300 ) ) ;
#211 = CONICAL_SURFACE ( 'NONE', #128, 1.200000000000003286, 0.7853981633974453924 ) ;
#212 = LOCAL_TIME ( 15, 58, 38.00000000000000000, #284 ) ;
#213 = LOCAL_TIME ( 15, 58, 38.00000000000000000, #23 ) ;
#214 = PERSON_AND_ORGANIZATION ( #44, #174 ) ;
#215 = DIRECTION ( 'NONE',  ( -3.491481338843133355E-15, 1.224646799147352961E-16, -1.000000000000000000 ) ) ;
#216 = CARTESIAN_POINT ( 'NONE',  ( 2.444036937190193349E-14, -8.572527594031471218E-16, 7.000000000000000000 ) ) ;
#217 = CC_DESIGN_APPROVAL ( #170, ( #193 ) ) ;
#218 = MANIFOLD_SOLID_BREP ( 'Corps-Déplacer/Copier1[1]', #165 ) ;
#219 = PERSON_AND_ORGANIZATION ( #44, #174 ) ;
#220 = PLANE ( 'NONE',  #72 ) ;
#221 = EDGE_CURVE ( 'NONE', #248, #248, #266, .T. ) ;
#222 = CARTESIAN_POINT ( 'NONE',  ( -1.280958785474937460E-31, 4.492998599245966942E-33, -3.668811776892870808E-17 ) ) ;
#223 = FACE_OUTER_BOUND ( 'NONE', #281, .T. ) ;
#224 = APPLICATION_PROTOCOL_DEFINITION ( 'international standard', 'config_control_design', 1994, #268 ) ;
#225 = EDGE_LOOP ( 'NONE', ( #236 ) ) ;
#226 = DIRECTION ( 'NONE',  ( -3.491481338843133355E-15, 1.224646799147352961E-16, -1.000000000000000000 ) ) ;
#227 = EDGE_CURVE ( 'NONE', #203, #203, #75, .T. ) ;
#228 = ORIENTED_EDGE ( 'NONE', *, *, #253, .T. ) ;
#229 = PERSON_AND_ORGANIZATION ( #44, #174 ) ;
#230 = EDGE_LOOP ( 'NONE', ( #119 ) ) ;
#231 = VERTEX_POINT ( 'NONE', #163 ) ;
#232 = AXIS2_PLACEMENT_3D ( 'NONE', #16, #112, #246 ) ;
#233 = FACE_OUTER_BOUND ( 'NONE', #127, .T. ) ;
#234 = ADVANCED_FACE ( 'NONE', ( #118 ), #125, .F. ) ;
#235 = DIRECTION ( 'NONE',  ( -5.180712695056456383E-31, -1.000000000000000000, -1.458240985185615940E-16 ) ) ;
#236 = ORIENTED_EDGE ( 'NONE', *, *, #190, .F. ) ;
#237 = ADVANCED_FACE ( 'NONE', ( #274, #233 ), #113, .F. ) ;
#238 = APPLICATION_CONTEXT ( 'configuration controlled 3d designs of mechanical parts and assemblies' ) ;
#239 = CIRCLE ( 'NONE', #178, 0.6499999999999992450 ) ;
#240 = PERSON_AND_ORGANIZATION ( #44, #174 ) ;
#241 = CARTESIAN_POINT ( 'NONE',  ( 1.326762908760390423E-13, -4.653657836759941152E-15, 38.00000000000000000 ) ) ;
#242 = CARTESIAN_POINT ( 'NONE',  ( 5.237222008264700033E-14, -1.836970198721029194E-15, 15.00000000000000000 ) ) ;
#243 = FACE_OUTER_BOUND ( 'NONE', #98, .T. ) ;
#244 =( GEOMETRIC_REPRESENTATION_CONTEXT ( 3 ) GLOBAL_UNCERTAINTY_ASSIGNED_CONTEXT ( ( #103 ) ) GLOBAL_UNIT_ASSIGNED_CONTEXT ( ( #22, #180, #277 ) ) REPRESENTATION_CONTEXT ( 'NONE', 'WORKASPACE' ) );
#245 = DIRECTION ( 'NONE',  ( 4.275831445896957731E-31, 1.000000000000000000, 1.224646799147353207E-16 ) ) ;
#246 = DIRECTION ( 'NONE',  ( 5.180712695056456383E-31, 1.000000000000000000, 1.458240985185615940E-16 ) ) ;
#247 = ADVANCED_FACE ( 'NONE', ( #95, #161 ), #7, .T. ) ;
#248 = VERTEX_POINT ( 'NONE', #21 ) ;
#249 = LOCAL_TIME ( 15, 58, 38.00000000000000000, #80 ) ;
#250 = CARTESIAN_POINT ( 'NONE',  ( 1.316288464743861212E-13, 1.499999999999998668, 37.69999999999999574 ) ) ;
#251 = DIRECTION ( 'NONE',  ( -3.491481338843133355E-15, 1.224646799147352961E-16, -1.000000000000000000 ) ) ;
#252 = CALENDAR_DATE ( 2021, 29, 11 ) ;
#253 = EDGE_CURVE ( 'NONE', #184, #184, #79, .T. ) ;
#254 = CONICAL_SURFACE ( 'NONE', #135, 1.499999999999997780, 0.1745329251994259812 ) ;
#255 = DIRECTION ( 'NONE',  ( 3.491481338843133355E-15, -1.224646799147352961E-16, 1.000000000000000000 ) ) ;
#256 = ORIENTED_EDGE ( 'NONE', *, *, #78, .T. ) ;
#257 = LOCAL_TIME ( 15, 58, 38.00000000000000000, #48 ) ;
#258 = APPROVAL_STATUS ( 'not_yet_approved' ) ;
#259 = PRODUCT_RELATED_PRODUCT_CATEGORY ( 'detail', '', ( #29 ) ) ;
#260 = CIRCLE ( 'NONE', #162, 1.200000000000003286 ) ;
#261 = CARTESIAN_POINT ( 'NONE',  ( 6.981414859920802045E-14, -2.448750696904670809E-15, 19.99556687372707486 ) ) ;
#262 = ADVANCED_FACE ( 'NONE', ( #148, #120 ), #53, .T. ) ;
#263 = DIRECTION ( 'NONE',  ( 4.275831445896957731E-31, 1.000000000000000000, 1.224646799147353207E-16 ) ) ;
#264 = PERSON_AND_ORGANIZATION ( #44, #174 ) ;
#265 = DIRECTION ( 'NONE',  ( 3.491481338843133355E-15, -1.224646799147352961E-16, 1.000000000000000000 ) ) ;
#266 = CIRCLE ( 'NONE', #232, 0.7434999999999992726 ) ;
#267 = DIRECTION ( 'NONE',  ( -3.491481338843133355E-15, 1.224646799147352961E-16, -1.000000000000000000 ) ) ;
#268 = APPLICATION_CONTEXT ( 'configuration controlled 3d designs of mechanical parts and assemblies' ) ;
#269 = PERSON_AND_ORGANIZATION ( #44, #174 ) ;
#270 = DIRECTION ( 'NONE',  ( 0.0000000000000000000, 1.000000000000000000, 0.0000000000000000000 ) ) ;
#271 = DIRECTION ( 'NONE',  ( 4.275831445896957731E-31, 1.000000000000000000, 1.224646799147352714E-16 ) ) ;
#272 = CIRCLE ( 'NONE', #192, 0.6803844939755818721 ) ;
#273 = EDGE_LOOP ( 'NONE', ( #77 ) ) ;
#274 = FACE_OUTER_BOUND ( 'NONE', #30, .T. ) ;
#275 = APPROVAL_ROLE ( '' ) ;
#276 = ORIENTED_EDGE ( 'NONE', *, *, #227, .T. ) ;
#277 =( NAMED_UNIT ( * ) SI_UNIT ( $, .STERADIAN. ) SOLID_ANGLE_UNIT ( ) );
#278 = EDGE_LOOP ( 'NONE', ( #114 ) ) ;
#279 = CARTESIAN_POINT ( 'NONE',  ( 5.237222008264700033E-14, 0.6499999999999982458, 15.00000000000000000 ) ) ;
#280 = APPROVAL ( #189, 'UNSPECIFIED' ) ;
#281 = EDGE_LOOP ( 'NONE', ( #276 ) ) ;
#282 = AXIS2_PLACEMENT_3D ( 'NONE', #153, #10, #56 ) ;
#283 = CC_DESIGN_PERSON_AND_ORGANIZATION_ASSIGNMENT ( #264, #105, ( #83 ) ) ;
#284 = COORDINATED_UNIVERSAL_TIME_OFFSET ( 1, 0, .AHEAD. ) ;
#285 = PERSON_AND_ORGANIZATION ( #44, #174 ) ;
#286 = CC_DESIGN_APPROVAL ( #280, ( #83 ) ) ;
#287 = DIRECTION ( 'NONE',  ( 0.0000000000000000000, 1.000000000000000000, 0.0000000000000000000 ) ) ;
#288 = CC_DESIGN_DATE_AND_TIME_ASSIGNMENT ( #62, #133, ( #47 ) ) ;
#289 = DIRECTION ( 'NONE',  ( 0.0000000000000000000, 1.000000000000000000, 0.0000000000000000000 ) ) ;
#290 = CALENDAR_DATE ( 2021, 29, 11 ) ;
#291 = DIRECTION ( 'NONE',  ( 4.275831445896957731E-31, 1.000000000000000000, 1.224646799147352961E-16 ) ) ;
#292 = DIRECTION ( 'NONE',  ( -3.491481338843133355E-15, 1.224646799147352961E-16, -1.000000000000000000 ) ) ;
#293 = CIRCLE ( 'NONE', #60, 1.499999999999997780 ) ;
#294 = DATE_TIME_ROLE ( 'classification_date' ) ;
#295 = CARTESIAN_POINT ( 'NONE',  ( 1.326762908760390423E-13, 8.998558695971099120E-33, 38.00000000000000000 ) ) ;
#296 = CALENDAR_DATE ( 2021, 29, 11 ) ;
#297 = VERTEX_POINT ( 'NONE', #209 ) ;
#298 = CARTESIAN_POINT ( 'NONE',  ( 5.358479882634336420E-14, 0.6803844939755800958, 15.34729635533384773 ) ) ;
#299 = ADVANCED_FACE ( 'NONE', ( #46, #164 ), #49, .T. ) ;
#300 = ORIENTED_EDGE ( 'NONE', *, *, #92, .F. ) ;
#301 = DIRECTION ( 'NONE',  ( 0.0000000000000000000, 1.000000000000000000, 0.0000000000000000000 ) ) ;
#302 = EDGE_LOOP ( 'NONE', ( #256 ) ) ;
#303 = DIRECTION ( 'NONE',  ( -3.491481338843133355E-15, 1.224646799147352961E-16, -1.000000000000000000 ) ) ;
ENDSEC;
END-ISO-10303-21;
