ISO-10303-21;
HEADER;
FILE_DESCRIPTION (( 'STEP AP203' ),
    '1' );
FILE_NAME ('200050.step',
    '2021-11-29T14:58:37',
    ( '' ),
    ( '' ),
    'SwSTEP 2.0',
    'SolidWorks 2019',
    '' );
FILE_SCHEMA (( 'CONFIG_CONTROL_DESIGN' ));
ENDSEC;

DATA;
#1 = PLANE ( 'NONE',  #95 ) ;
#2 = CC_DESIGN_PERSON_AND_ORGANIZATION_ASSIGNMENT ( #173, #190, ( #208 ) ) ;
#3 = CIRCLE ( 'NONE', #86, 0.5591624327025949137 ) ;
#4 = CIRCLE ( 'NONE', #70, 1.499999999999997558 ) ;
#5 = ORIENTED_EDGE ( 'NONE', *, *, #139, .F. ) ;
#6 = CONICAL_SURFACE ( 'NONE', #240, 0.6349999999999991207, 0.5235987755982924874 ) ;
#7 = APPROVAL_STATUS ( 'not_yet_approved' ) ;
#8 = CC_DESIGN_APPROVAL ( #163, ( #146 ) ) ;
#9 = ADVANCED_FACE ( 'NONE', ( #136 ), #39, .F. ) ;
#10 = DIRECTION ( 'NONE',  ( 1.000000000000000000, 0.0000000000000000000, 0.0000000000000000000 ) ) ;
#11 = CARTESIAN_POINT ( 'NONE',  ( 0.0000000000000000000, 0.0000000000000000000, 0.0000000000000000000 ) ) ;
#12 = EDGE_CURVE ( 'NONE', #165, #165, #262, .T. ) ;
#13 = DIRECTION ( 'NONE',  ( -4.275831445896957731E-31, -1.000000000000000000, -1.224646799147352961E-16 ) ) ;
#14 = FACE_OUTER_BOUND ( 'NONE', #118, .T. ) ;
#15 = FACE_OUTER_BOUND ( 'NONE', #72, .T. ) ;
#16 = APPROVAL_ROLE ( '' ) ;
#17 = ADVANCED_FACE ( 'NONE', ( #88, #90 ), #67, .T. ) ;
#18 = DIRECTION ( 'NONE',  ( -3.491481338843133355E-15, 1.224646799147352961E-16, -1.000000000000000000 ) ) ;
#19 = EDGE_LOOP ( 'NONE', ( #123 ) ) ;
#20 = VERTEX_POINT ( 'NONE', #98 ) ;
#21 = EDGE_LOOP ( 'NONE', ( #211 ) ) ;
#22 = VERTEX_POINT ( 'NONE', #257 ) ;
#23 = AXIS2_PLACEMENT_3D ( 'NONE', #217, #288, #82 ) ;
#24 = AXIS2_PLACEMENT_3D ( 'NONE', #152, #54, #10 ) ;
#25 = CARTESIAN_POINT ( 'NONE',  ( 6.312820354112949411E-14, 1.499999999999995559, 18.08063610102134433 ) ) ;
#26 = ORIENTED_EDGE ( 'NONE', *, *, #116, .T. ) ;
#27 = VERTEX_POINT ( 'NONE', #25 ) ;
#28 = EDGE_LOOP ( 'NONE', ( #50 ) ) ;
#29 = EDGE_CURVE ( 'NONE', #94, #94, #3, .T. ) ;
#30 = CIRCLE ( 'NONE', #178, 1.200000000000003286 ) ;
#31 = APPROVAL_ROLE ( '' ) ;
#32 = EDGE_CURVE ( 'NONE', #140, #140, #125, .T. ) ;
#33 = DIRECTION ( 'NONE',  ( 4.275831445896957731E-31, 1.000000000000000000, 1.224646799147352961E-16 ) ) ;
#34 = DIRECTION ( 'NONE',  ( 3.491481338843133355E-15, -1.224646799147352961E-16, 1.000000000000000000 ) ) ;
#35 = PERSON_AND_ORGANIZATION ( #184, #170 ) ;
#36 = CIRCLE ( 'NONE', #23, 0.7035000000000000142 ) ;
#37 = AXIS2_PLACEMENT_3D ( 'NONE', #209, #185, #299 ) ;
#38 = DIRECTION ( 'NONE',  ( -3.491481338843133355E-15, 1.224646799147352961E-16, -1.000000000000000000 ) ) ;
#39 = PLANE ( 'NONE',  #42 ) ;
#40 = ADVANCED_FACE ( 'NONE', ( #296, #14 ), #213, .F. ) ;
#41 = DIRECTION ( 'NONE',  ( 4.275831445896958607E-31, 1.000000000000000000, 1.224646799147352961E-16 ) ) ;
#42 = AXIS2_PLACEMENT_3D ( 'NONE', #161, #207, #13 ) ;
#43 = DIRECTION ( 'NONE',  ( 3.491481338843133355E-15, -1.224646799147352961E-16, 1.000000000000000000 ) ) ;
#44 = CONICAL_SURFACE ( 'NONE', #153, 1.499999999999997558, 0.1745329251994260089 ) ;
#45 = ORIENTED_EDGE ( 'NONE', *, *, #244, .F. ) ;
#46 = DIRECTION ( 'NONE',  ( 0.0000000000000000000, -1.000000000000000000, 0.0000000000000000000 ) ) ;
#47 = CARTESIAN_POINT ( 'NONE',  ( 2.094888803305880013E-14, 5.275405035513071464E-33, 6.000000000000000000 ) ) ;
#48 = EDGE_LOOP ( 'NONE', ( #5 ) ) ;
#49 = DIRECTION ( 'NONE',  ( 0.0000000000000000000, 1.000000000000000000, 0.0000000000000000000 ) ) ;
#50 = ORIENTED_EDGE ( 'NONE', *, *, #12, .F. ) ;
#51 = FACE_OUTER_BOUND ( 'NONE', #19, .T. ) ;
#52 = CC_DESIGN_PERSON_AND_ORGANIZATION_ASSIGNMENT ( #35, #113, ( #237 ) ) ;
#53 = EDGE_LOOP ( 'NONE', ( #218 ) ) ;
#54 = DIRECTION ( 'NONE',  ( 0.0000000000000000000, 0.0000000000000000000, 1.000000000000000000 ) ) ;
#55 = MANIFOLD_SOLID_BREP ( 'Corps-Déplacer/Copier1[1]', #108 ) ;
#56 = APPROVAL_ROLE ( '' ) ;
#57 = CC_DESIGN_PERSON_AND_ORGANIZATION_ASSIGNMENT ( #231, #89, ( #66 ) ) ;
#58 = COORDINATED_UNIVERSAL_TIME_OFFSET ( 1, 0, .AHEAD. ) ;
#59 = CARTESIAN_POINT ( 'NONE',  ( 2.094888803305880013E-14, -7.347880794884118750E-16, 6.000000000000000000 ) ) ;
#60 = DIRECTION ( 'NONE',  ( 0.0000000000000000000, 1.000000000000000000, 0.0000000000000000000 ) ) ;
#61 = AXIS2_PLACEMENT_3D ( 'NONE', #59, #112, #135 ) ;
#62 = DIRECTION ( 'NONE',  ( -3.491481338843133355E-15, 1.224646799147352961E-16, -1.000000000000000000 ) ) ;
#63 = CC_DESIGN_DATE_AND_TIME_ASSIGNMENT ( #111, #199, ( #237 ) ) ;
#64 = PERSON_AND_ORGANIZATION ( #184, #170 ) ;
#65 = DIRECTION ( 'NONE',  ( 0.0000000000000000000, 1.000000000000000000, 0.0000000000000000000 ) ) ;
#66 = PRODUCT ( '200050', '200050', '', ( #80 ) ) ;
#67 = CYLINDRICAL_SURFACE ( 'NONE', #103, 1.500000000000000444 ) ;
#68 = ORIENTED_EDGE ( 'NONE', *, *, #195, .T. ) ;
#69 = FACE_BOUND ( 'NONE', #255, .T. ) ;
#70 = AXIS2_PLACEMENT_3D ( 'NONE', #176, #265, #60 ) ;
#71 = DIRECTION ( 'NONE',  ( -5.475280581058245861E-31, -1.000000000000000000, -1.541154474037676805E-16 ) ) ;
#72 = EDGE_LOOP ( 'NONE', ( #205 ) ) ;
#73 = CARTESIAN_POINT ( 'NONE',  ( 1.326762908760390423E-13, 1.199999999999998845, 38.00000000000000000 ) ) ;
#74 = PLANE ( 'NONE',  #37 ) ;
#75 = LOCAL_TIME ( 15, 58, 37.00000000000000000, #58 ) ;
#76 = EDGE_LOOP ( 'NONE', ( #121 ) ) ;
#77 = LOCAL_TIME ( 15, 58, 37.00000000000000000, #277 ) ;
#78 = APPLICATION_PROTOCOL_DEFINITION ( 'international standard', 'config_control_design', 1994, #264 ) ;
#79 = SECURITY_CLASSIFICATION_LEVEL ( 'unclassified' ) ;
#80 = MECHANICAL_CONTEXT ( 'NONE', #264, 'mechanical' ) ;
#81 = ADVANCED_FACE ( 'NONE', ( #223, #132 ), #83, .T. ) ;
#82 = DIRECTION ( 'NONE',  ( 0.0000000000000000000, 1.000000000000000000, 0.0000000000000000000 ) ) ;
#83 = CYLINDRICAL_SURFACE ( 'NONE', #248, 0.6349999999999995648 ) ;
#84 = COORDINATED_UNIVERSAL_TIME_OFFSET ( 1, 0, .AHEAD. ) ;
#85 = CARTESIAN_POINT ( 'NONE',  ( 0.0000000000000000000, 0.0000000000000000000, 0.0000000000000000000 ) ) ;
#86 = AXIS2_PLACEMENT_3D ( 'NONE', #115, #177, #268 ) ;
#87 = APPROVAL_PERSON_ORGANIZATION ( #260, #186, #56 ) ;
#88 = FACE_OUTER_BOUND ( 'NONE', #142, .T. ) ;
#89 = PERSON_AND_ORGANIZATION_ROLE ( 'design_owner' ) ;
#90 = FACE_OUTER_BOUND ( 'NONE', #214, .T. ) ;
#91 = EDGE_CURVE ( 'NONE', #22, #22, #287, .T. ) ;
#92 = DIRECTION ( 'NONE',  ( 3.491481338843133355E-15, -1.224646799147352961E-16, 1.000000000000000000 ) ) ;
#93 = COORDINATED_UNIVERSAL_TIME_OFFSET ( 1, 0, .AHEAD. ) ;
#94 = VERTEX_POINT ( 'NONE', #171 ) ;
#95 = AXIS2_PLACEMENT_3D ( 'NONE', #47, #212, #122 ) ;
#96 = FACE_OUTER_BOUND ( 'NONE', #53, .T. ) ;
#97 = ORIENTED_EDGE ( 'NONE', *, *, #29, .F. ) ;
#98 = CARTESIAN_POINT ( 'NONE',  ( 2.094888803305880013E-14, 0.7034999999999992371, 6.000000000000000000 ) ) ;
#99 = CC_DESIGN_PERSON_AND_ORGANIZATION_ASSIGNMENT ( #64, #126, ( #146 ) ) ;
#100 = DIRECTION ( 'NONE',  ( -3.491481338843133355E-15, 1.224646799147352961E-16, -1.000000000000000000 ) ) ;
#101 = LOCAL_TIME ( 15, 58, 37.00000000000000000, #131 ) ;
#102 = ORIENTED_EDGE ( 'NONE', *, *, #12, .T. ) ;
#103 = AXIS2_PLACEMENT_3D ( 'NONE', #85, #220, #289 ) ;
#104 = CC_DESIGN_APPROVAL ( #186, ( #237 ) ) ;
#105 = DESIGN_CONTEXT ( 'detailed design', #241, 'design' ) ;
#106 = PERSON_AND_ORGANIZATION ( #184, #170 ) ;
#107 = DIRECTION ( 'NONE',  ( 5.475280581058245861E-31, 1.000000000000000000, 1.541154474037676805E-16 ) ) ;
#108 = CLOSED_SHELL ( 'NONE', ( #297, #200, #81, #40, #276, #17, #284, #221 ) ) ;
#109 = CONICAL_SURFACE ( 'NONE', #294, 0.7034999999999992371, 0.5235987755982925984 ) ;
#110 = DIRECTION ( 'NONE',  ( -3.491481338843133355E-15, 1.224646799147352961E-16, -1.000000000000000000 ) ) ;
#111 = DATE_AND_TIME ( #243, #75 ) ;
#112 = DIRECTION ( 'NONE',  ( -3.491481338843133355E-15, 1.224646799147352961E-16, -1.000000000000000000 ) ) ;
#113 = PERSON_AND_ORGANIZATION_ROLE ( 'creator' ) ;
#114 = FACE_OUTER_BOUND ( 'NONE', #164, .T. ) ;
#115 = CARTESIAN_POINT ( 'NONE',  ( -4.283620139497158343E-31, 1.502491688624208852E-32, -1.226877569655432235E-16 ) ) ;
#116 = EDGE_CURVE ( 'NONE', #148, #148, #36, .T. ) ;
#117 = DATE_AND_TIME ( #166, #77 ) ;
#118 = EDGE_LOOP ( 'NONE', ( #239 ) ) ;
#119 = VERTEX_POINT ( 'NONE', #254 ) ;
#120 = CARTESIAN_POINT ( 'NONE',  ( 4.660183614865709118E-14, 0.6653844939755798604, 13.34729635533384595 ) ) ;
#121 = ORIENTED_EDGE ( 'NONE', *, *, #32, .T. ) ;
#122 = DIRECTION ( 'NONE',  ( -4.275831445896957731E-31, -1.000000000000000000, -1.224646799147352961E-16 ) ) ;
#123 = ORIENTED_EDGE ( 'NONE', *, *, #91, .T. ) ;
#124 = EDGE_LOOP ( 'NONE', ( #102 ) ) ;
#125 = CIRCLE ( 'NONE', #292, 0.6349999999999991207 ) ;
#126 = PERSON_AND_ORGANIZATION_ROLE ( 'creator' ) ;
#127 = EDGE_CURVE ( 'NONE', #20, #20, #242, .T. ) ;
#128 = UNCERTAINTY_MEASURE_WITH_UNIT (LENGTH_MEASURE( 1.000000000000000082E-05 ), #280, 'distance_accuracy_value', 'NONE');
#129 = PRODUCT_DEFINITION_SHAPE ( 'NONE', 'NONE',  #237 ) ;
#130 = CARTESIAN_POINT ( 'NONE',  ( 8.728703347107831416E-16, -3.061616997868381785E-17, 0.2499999999999999445 ) ) ;
#131 = COORDINATED_UNIVERSAL_TIME_OFFSET ( 1, 0, .AHEAD. ) ;
#132 = FACE_OUTER_BOUND ( 'NONE', #124, .T. ) ;
#133 = AXIS2_PLACEMENT_3D ( 'NONE', #303, #100, #192 ) ;
#134 = DIRECTION ( 'NONE',  ( 0.0000000000000000000, 1.000000000000000000, 0.0000000000000000000 ) ) ;
#135 = DIRECTION ( 'NONE',  ( 0.0000000000000000000, 1.000000000000000000, 0.0000000000000000000 ) ) ;
#136 = FACE_OUTER_BOUND ( 'NONE', #21, .T. ) ;
#137 = APPROVAL_STATUS ( 'not_yet_approved' ) ;
#138 = ORIENTED_EDGE ( 'NONE', *, *, #155, .F. ) ;
#139 = EDGE_CURVE ( 'NONE', #238, #238, #233, .T. ) ;
#140 = VERTEX_POINT ( 'NONE', #168 ) ;
#141 = CALENDAR_DATE ( 2021, 29, 11 ) ;
#142 = EDGE_LOOP ( 'NONE', ( #149 ) ) ;
#143 = CARTESIAN_POINT ( 'NONE',  ( 1.326762908760390423E-13, -4.653657836759941152E-15, 38.00000000000000000 ) ) ;
#144 = AXIS2_PLACEMENT_3D ( 'NONE', #204, #175, #263 ) ;
#145 = CARTESIAN_POINT ( 'NONE',  ( 2.094888803305880013E-14, 0.7034999999999992371, 6.000000000000000000 ) ) ;
#146 = PRODUCT_DEFINITION_FORMATION_WITH_SPECIFIED_SOURCE ( 'ANY', '', #66, .NOT_KNOWN. ) ;
#147 = ORIENTED_EDGE ( 'NONE', *, *, #127, .T. ) ;
#148 = VERTEX_POINT ( 'NONE', #145 ) ;
#149 = ORIENTED_EDGE ( 'NONE', *, *, #195, .F. ) ;
#150 = CC_DESIGN_PERSON_AND_ORGANIZATION_ASSIGNMENT ( #106, #216, ( #146 ) ) ;
#151 = AXIS2_PLACEMENT_3D ( 'NONE', #245, #293, #33 ) ;
#152 = CARTESIAN_POINT ( 'NONE',  ( 0.0000000000000000000, 0.0000000000000000000, 0.0000000000000000000 ) ) ;
#153 = AXIS2_PLACEMENT_3D ( 'NONE', #194, #92, #46 ) ;
#154 = MANIFOLD_SOLID_BREP ( 'Corps-Déplacer/Copier1[2]', #172 ) ;
#155 = EDGE_CURVE ( 'NONE', #275, #275, #30, .T. ) ;
#156 = DIRECTION ( 'NONE',  ( -3.491481338843133355E-15, 1.224646799147352961E-16, -1.000000000000000000 ) ) ;
#157 = CALENDAR_DATE ( 2021, 29, 11 ) ;
#158 = FACE_OUTER_BOUND ( 'NONE', #229, .T. ) ;
#159 = AXIS2_PLACEMENT_3D ( 'NONE', #246, #34, #202 ) ;
#160 = DATE_AND_TIME ( #266, #259 ) ;
#161 = CARTESIAN_POINT ( 'NONE',  ( -2.141810069748579172E-31, 7.512458443121044262E-33, -6.134387848277161177E-17 ) ) ;
#162 = DIRECTION ( 'NONE',  ( 0.0000000000000000000, 1.000000000000000000, 0.0000000000000000000 ) ) ;
#163 = APPROVAL ( #290, 'UNSPECIFIED' ) ;
#164 = EDGE_LOOP ( 'NONE', ( #138 ) ) ;
#165 = VERTEX_POINT ( 'NONE', #232 ) ;
#166 = CALENDAR_DATE ( 2021, 29, 11 ) ;
#167 = ORIENTED_EDGE ( 'NONE', *, *, #32, .F. ) ;
#168 = CARTESIAN_POINT ( 'NONE',  ( 2.136313651352882264E-14, 0.6349999999999984546, 6.118645480318471108 ) ) ;
#169 = AXIS2_PLACEMENT_3D ( 'NONE', #130, #18, #107 ) ;
#170 = ORGANIZATION ( 'UNSPECIFIED', 'UNSPECIFIED', '' ) ;
#171 = CARTESIAN_POINT ( 'NONE',  ( -1.892735826383161794E-31, 0.5591624327025949137, -5.421010862427522170E-17 ) ) ;
#172 = CLOSED_SHELL ( 'NONE', ( #9, #281, #261, #182 ) ) ;
#173 = PERSON_AND_ORGANIZATION ( #184, #170 ) ;
#174 = CC_DESIGN_DATE_AND_TIME_ASSIGNMENT ( #295, #269, ( #208 ) ) ;
#175 = DIRECTION ( 'NONE',  ( -3.491481338843133355E-15, 1.224646799147352961E-16, -1.000000000000000000 ) ) ;
#176 = CARTESIAN_POINT ( 'NONE',  ( 6.312820354112949411E-14, -2.214239312766386484E-15, 18.08063610102134433 ) ) ;
#177 = DIRECTION ( 'NONE',  ( -3.491481338843133355E-15, 1.224646799147352961E-16, -1.000000000000000000 ) ) ;
#178 = AXIS2_PLACEMENT_3D ( 'NONE', #222, #156, #162 ) ;
#179 = CC_DESIGN_SECURITY_CLASSIFICATION ( #208, ( #146 ) ) ;
#180 = APPROVAL_PERSON_ORGANIZATION ( #188, #228, #16 ) ;
#181 = EDGE_LOOP ( 'NONE', ( #45 ) ) ;
#182 = ADVANCED_FACE ( 'NONE', ( #15 ), #267, .T. ) ;
#183 = DIRECTION ( 'NONE',  ( -3.491481338843133355E-15, 1.224646799147352961E-16, -1.000000000000000000 ) ) ;
#184 = PERSON ( 'UNSPECIFIED', 'UNSPECIFIED', 'UNSPECIFIED', ('UNSPECIFIED'), ('UNSPECIFIED'), ('UNSPECIFIED') ) ;
#185 = DIRECTION ( 'NONE',  ( -3.491481338843133355E-15, 1.224646799147352961E-16, -1.000000000000000000 ) ) ;
#186 = APPROVAL ( #7, 'UNSPECIFIED' ) ;
#187 = FACE_BOUND ( 'NONE', #282, .T. ) ;
#188 = PERSON_AND_ORGANIZATION ( #184, #170 ) ;
#189 = FACE_OUTER_BOUND ( 'NONE', #181, .T. ) ;
#190 = PERSON_AND_ORGANIZATION_ROLE ( 'classification_officer' ) ;
#191 = EDGE_LOOP ( 'NONE', ( #147 ) ) ;
#192 = DIRECTION ( 'NONE',  ( 4.275831445896957731E-31, 1.000000000000000000, 1.224646799147352961E-16 ) ) ;
#193 =( GEOMETRIC_REPRESENTATION_CONTEXT ( 3 ) GLOBAL_UNCERTAINTY_ASSIGNED_CONTEXT ( ( #128 ) ) GLOBAL_UNIT_ASSIGNED_CONTEXT ( ( #280, #256, #300 ) ) REPRESENTATION_CONTEXT ( 'NONE', 'WORKASPACE' ) );
#194 = CARTESIAN_POINT ( 'NONE',  ( 6.312820354112949411E-14, -2.214239312766386484E-15, 18.08063610102134433 ) ) ;
#195 = EDGE_CURVE ( 'NONE', #27, #27, #4, .T. ) ;
#196 = EDGE_LOOP ( 'NONE', ( #68 ) ) ;
#197 = AXIS2_PLACEMENT_3D ( 'NONE', #270, #62, #291 ) ;
#198 = CIRCLE ( 'NONE', #234, 1.500000000000003331 ) ;
#199 = DATE_TIME_ROLE ( 'creation_date' ) ;
#200 = ADVANCED_FACE ( 'NONE', ( #158, #249 ), #6, .T. ) ;
#201 = CARTESIAN_POINT ( 'NONE',  ( 2.136313651352882264E-14, -7.493179602589433835E-16, 6.118645480318471108 ) ) ;
#202 = DIRECTION ( 'NONE',  ( -4.275831445896957731E-31, -1.000000000000000000, -1.224646799147352961E-16 ) ) ;
#203 = PERSON_AND_ORGANIZATION ( #184, #170 ) ;
#204 = CARTESIAN_POINT ( 'NONE',  ( 4.660183614865709118E-14, -1.634572375883072414E-15, 13.34729635533384595 ) ) ;
#205 = ORIENTED_EDGE ( 'NONE', *, *, #127, .F. ) ;
#206 = CONICAL_SURFACE ( 'NONE', #215, 1.200000000000003286, 0.7853981633974453924 ) ;
#207 = DIRECTION ( 'NONE',  ( 3.491481338843133355E-15, -1.224646799147352961E-16, 1.000000000000000000 ) ) ;
#208 = SECURITY_CLASSIFICATION ( '', '', #79 ) ;
#209 = CARTESIAN_POINT ( 'NONE',  ( 1.326762908760390423E-13, 8.998558695971099120E-33, 38.00000000000000000 ) ) ;
#210 = FACE_BOUND ( 'NONE', #48, .T. ) ;
#211 = ORIENTED_EDGE ( 'NONE', *, *, #29, .T. ) ;
#212 = DIRECTION ( 'NONE',  ( 3.491481338843133355E-15, -1.224646799147352961E-16, 1.000000000000000000 ) ) ;
#213 = TOROIDAL_SURFACE ( 'NONE', #151, 2.635000000000000231, 2.000000000000000000 ) ;
#214 = EDGE_LOOP ( 'NONE', ( #301 ) ) ;
#215 = AXIS2_PLACEMENT_3D ( 'NONE', #143, #278, #49 ) ;
#216 = PERSON_AND_ORGANIZATION_ROLE ( 'design_supplier' ) ;
#217 = CARTESIAN_POINT ( 'NONE',  ( 2.094888803305880013E-14, -7.347880794884118750E-16, 6.000000000000000000 ) ) ;
#218 = ORIENTED_EDGE ( 'NONE', *, *, #91, .F. ) ;
#219 = APPROVAL_DATE_TIME ( #286, #186 ) ;
#220 = DIRECTION ( 'NONE',  ( -3.491481338843133355E-15, 1.224646799147352961E-16, -1.000000000000000000 ) ) ;
#221 = ADVANCED_FACE ( 'NONE', ( #114 ), #74, .F. ) ;
#222 = CARTESIAN_POINT ( 'NONE',  ( 1.326762908760390423E-13, -4.653657836759941152E-15, 38.00000000000000000 ) ) ;
#223 = FACE_OUTER_BOUND ( 'NONE', #235, .T. ) ;
#224 = LOCAL_TIME ( 15, 58, 37.00000000000000000, #93 ) ;
#225 = APPLICATION_PROTOCOL_DEFINITION ( 'international standard', 'config_control_design', 1994, #241 ) ;
#226 = ORIENTED_EDGE ( 'NONE', *, *, #116, .F. ) ;
#227 = CARTESIAN_POINT ( 'NONE',  ( 8.728703347107831416E-16, -3.061616997868381785E-17, 0.2499999999999999445 ) ) ;
#228 = APPROVAL ( #137, 'UNSPECIFIED' ) ;
#229 = EDGE_LOOP ( 'NONE', ( #226 ) ) ;
#230 = FACE_OUTER_BOUND ( 'NONE', #271, .T. ) ;
#231 = PERSON_AND_ORGANIZATION ( #184, #170 ) ;
#232 = CARTESIAN_POINT ( 'NONE',  ( 4.538925740496073362E-14, 0.6349999999999984546, 13.00000000000000000 ) ) ;
#233 = CIRCLE ( 'NONE', #144, 0.6653844939755814147 ) ;
#234 = AXIS2_PLACEMENT_3D ( 'NONE', #274, #252, #272 ) ;
#235 = EDGE_LOOP ( 'NONE', ( #167 ) ) ;
#236 = CYLINDRICAL_SURFACE ( 'NONE', #133, 0.7034999999999996811 ) ;
#237 = PRODUCT_DEFINITION ( 'UNKNOWN', '', #146, #105 ) ;
#238 = VERTEX_POINT ( 'NONE', #120 ) ;
#239 = ORIENTED_EDGE ( 'NONE', *, *, #139, .T. ) ;
#240 = AXIS2_PLACEMENT_3D ( 'NONE', #247, #38, #134 ) ;
#241 = APPLICATION_CONTEXT ( 'configuration controlled 3d designs of mechanical parts and assemblies' ) ;
#242 = CIRCLE ( 'NONE', #61, 0.7035000000000000142 ) ;
#243 = CALENDAR_DATE ( 2021, 29, 11 ) ;
#244 = EDGE_CURVE ( 'NONE', #119, #119, #198, .T. ) ;
#245 = CARTESIAN_POINT ( 'NONE',  ( 4.538925740496073362E-14, -1.734723475976807094E-15, 13.00000000000000000 ) ) ;
#246 = CARTESIAN_POINT ( 'NONE',  ( 2.094888803305880013E-14, 5.275405035513071464E-33, 6.000000000000000000 ) ) ;
#247 = CARTESIAN_POINT ( 'NONE',  ( 2.136313651352882264E-14, -7.493179602589433835E-16, 6.118645480318471108 ) ) ;
#248 = AXIS2_PLACEMENT_3D ( 'NONE', #11, #183, #41 ) ;
#249 = FACE_BOUND ( 'NONE', #76, .T. ) ;
#250 = PRODUCT_RELATED_PRODUCT_CATEGORY ( 'detail', '', ( #66 ) ) ;
#251 = FACE_OUTER_BOUND ( 'NONE', #196, .T. ) ;
#252 = DIRECTION ( 'NONE',  ( -3.491481338843133355E-15, 1.224646799147352961E-16, -1.000000000000000000 ) ) ;
#253 = SHAPE_DEFINITION_REPRESENTATION ( #129, #273 ) ;
#254 = CARTESIAN_POINT ( 'NONE',  ( 1.316288464743861212E-13, 1.499999999999998668, 37.69999999999999574 ) ) ;
#255 = EDGE_LOOP ( 'NONE', ( #258 ) ) ;
#256 =( NAMED_UNIT ( * ) PLANE_ANGLE_UNIT ( ) SI_UNIT ( $, .RADIAN. ) );
#257 = CARTESIAN_POINT ( 'NONE',  ( 8.728703347107835360E-16, 0.7034999999999992371, 0.2500000000000000555 ) ) ;
#258 = ORIENTED_EDGE ( 'NONE', *, *, #155, .T. ) ;
#259 = LOCAL_TIME ( 15, 58, 37.00000000000000000, #84 ) ;
#260 = PERSON_AND_ORGANIZATION ( #184, #170 ) ;
#261 = ADVANCED_FACE ( 'NONE', ( #96, #302 ), #236, .T. ) ;
#262 = CIRCLE ( 'NONE', #197, 0.6350000000000000089 ) ;
#263 = DIRECTION ( 'NONE',  ( 0.0000000000000000000, 1.000000000000000000, 0.0000000000000000000 ) ) ;
#264 = APPLICATION_CONTEXT ( 'configuration controlled 3d designs of mechanical parts and assemblies' ) ;
#265 = DIRECTION ( 'NONE',  ( -3.491481338843133355E-15, 1.224646799147352961E-16, -1.000000000000000000 ) ) ;
#266 = CALENDAR_DATE ( 2021, 29, 11 ) ;
#267 = PLANE ( 'NONE',  #159 ) ;
#268 = DIRECTION ( 'NONE',  ( 4.275831445896956855E-31, 1.000000000000000000, 1.224646799147352961E-16 ) ) ;
#269 = DATE_TIME_ROLE ( 'classification_date' ) ;
#270 = CARTESIAN_POINT ( 'NONE',  ( 4.538925740496073362E-14, -1.592040838891558701E-15, 13.00000000000000000 ) ) ;
#271 = EDGE_LOOP ( 'NONE', ( #26 ) ) ;
#272 = DIRECTION ( 'NONE',  ( 0.0000000000000000000, 1.000000000000000000, 0.0000000000000000000 ) ) ;
#273 = ADVANCED_BREP_SHAPE_REPRESENTATION ( '200050', ( #55, #154, #24 ), #193 ) ;
#274 = CARTESIAN_POINT ( 'NONE',  ( 1.316288464743861212E-13, -4.616918432785520292E-15, 37.69999999999999574 ) ) ;
#275 = VERTEX_POINT ( 'NONE', #73 ) ;
#276 = ADVANCED_FACE ( 'NONE', ( #210, #251 ), #44, .T. ) ;
#277 = COORDINATED_UNIVERSAL_TIME_OFFSET ( 1, 0, .AHEAD. ) ;
#278 = DIRECTION ( 'NONE',  ( -3.491481338843133355E-15, 1.224646799147352961E-16, -1.000000000000000000 ) ) ;
#279 = APPROVAL_PERSON_ORGANIZATION ( #203, #163, #31 ) ;
#280 =( LENGTH_UNIT ( ) NAMED_UNIT ( * ) SI_UNIT ( .MILLI., .METRE. ) );
#281 = ADVANCED_FACE ( 'NONE', ( #187, #51 ), #109, .T. ) ;
#282 = EDGE_LOOP ( 'NONE', ( #97 ) ) ;
#283 = CC_DESIGN_APPROVAL ( #228, ( #208 ) ) ;
#284 = ADVANCED_FACE ( 'NONE', ( #189, #69 ), #206, .T. ) ;
#285 = APPROVAL_DATE_TIME ( #160, #163 ) ;
#286 = DATE_AND_TIME ( #157, #101 ) ;
#287 = CIRCLE ( 'NONE', #169, 0.7034999999999992371 ) ;
#288 = DIRECTION ( 'NONE',  ( -3.491481338843133355E-15, 1.224646799147352961E-16, -1.000000000000000000 ) ) ;
#289 = DIRECTION ( 'NONE',  ( 4.275831445896957731E-31, 1.000000000000000000, 1.224646799147353207E-16 ) ) ;
#290 = APPROVAL_STATUS ( 'not_yet_approved' ) ;
#291 = DIRECTION ( 'NONE',  ( 0.0000000000000000000, 1.000000000000000000, 0.0000000000000000000 ) ) ;
#292 = AXIS2_PLACEMENT_3D ( 'NONE', #201, #110, #65 ) ;
#293 = DIRECTION ( 'NONE',  ( -3.491481338843133355E-15, 1.224646799147352961E-16, -1.000000000000000000 ) ) ;
#294 = AXIS2_PLACEMENT_3D ( 'NONE', #227, #43, #71 ) ;
#295 = DATE_AND_TIME ( #141, #224 ) ;
#296 = FACE_OUTER_BOUND ( 'NONE', #28, .T. ) ;
#297 = ADVANCED_FACE ( 'NONE', ( #230 ), #1, .F. ) ;
#298 = APPROVAL_DATE_TIME ( #117, #228 ) ;
#299 = DIRECTION ( 'NONE',  ( 4.275831445896957731E-31, 1.000000000000000000, 1.224646799147352961E-16 ) ) ;
#300 =( NAMED_UNIT ( * ) SI_UNIT ( $, .STERADIAN. ) SOLID_ANGLE_UNIT ( ) );
#301 = ORIENTED_EDGE ( 'NONE', *, *, #244, .T. ) ;
#302 = FACE_OUTER_BOUND ( 'NONE', #191, .T. ) ;
#303 = CARTESIAN_POINT ( 'NONE',  ( 0.0000000000000000000, 0.0000000000000000000, 0.0000000000000000000 ) ) ;
ENDSEC;
END-ISO-10303-21;
