ISO-10303-21;
HEADER;
FILE_DESCRIPTION (( 'STEP AP203' ),
    '1' );
FILE_NAME ('200049.step',
    '2021-11-29T14:58:37',
    ( '' ),
    ( '' ),
    'SwSTEP 2.0',
    'SolidWorks 2019',
    '' );
FILE_SCHEMA (( 'CONFIG_CONTROL_DESIGN' ));
ENDSEC;

DATA;
#1 = EDGE_LOOP ( 'NONE', ( #11 ) ) ;
#2 = CLOSED_SHELL ( 'NONE', ( #303, #35, #43, #152 ) ) ;
#3 = CARTESIAN_POINT ( 'NONE',  ( 0.0000000000000000000, 0.0000000000000000000, 0.0000000000000000000 ) ) ;
#4 = CARTESIAN_POINT ( 'NONE',  ( 2.127242516744049751E-14, -7.461362345427686452E-16, 6.092664718204937380 ) ) ;
#5 = CARTESIAN_POINT ( 'NONE',  ( 2.094888803305880013E-14, 5.087935062680338578E-33, 6.000000000000000000 ) ) ;
#6 = DIRECTION ( 'NONE',  ( -4.275831445896957731E-31, -1.000000000000000000, -1.224646799147352961E-16 ) ) ;
#7 = AXIS2_PLACEMENT_3D ( 'NONE', #228, #113, #71 ) ;
#8 = PERSON_AND_ORGANIZATION_ROLE ( 'creator' ) ;
#9 = FACE_OUTER_BOUND ( 'NONE', #1, .T. ) ;
#10 = CC_DESIGN_PERSON_AND_ORGANIZATION_ASSIGNMENT ( #284, #249, ( #48 ) ) ;
#11 = ORIENTED_EDGE ( 'NONE', *, *, #112, .F. ) ;
#12 = APPROVAL_DATE_TIME ( #262, #237 ) ;
#13 = CARTESIAN_POINT ( 'NONE',  ( 2.094888803305880013E-14, -7.347880794884118750E-16, 6.000000000000000000 ) ) ;
#14 = PERSON_AND_ORGANIZATION ( #196, #210 ) ;
#15 = CALENDAR_DATE ( 2021, 29, 11 ) ;
#16 = CIRCLE ( 'NONE', #177, 1.200000000000003286 ) ;
#17 = CONICAL_SURFACE ( 'NONE', #123, 0.6249999999999991118, 0.5235987755982935976 ) ;
#18 = EDGE_LOOP ( 'NONE', ( #41 ) ) ;
#19 = APPROVAL_STATUS ( 'not_yet_approved' ) ;
#20 = CARTESIAN_POINT ( 'NONE',  ( -1.892735826383161356E-31, 0.5341624327025947805, -5.421010862427522170E-17 ) ) ;
#21 = LOCAL_TIME ( 15, 58, 37.00000000000000000, #38 ) ;
#22 = VERTEX_POINT ( 'NONE', #109 ) ;
#23 = AXIS2_PLACEMENT_3D ( 'NONE', #224, #31, #142 ) ;
#24 = VERTEX_POINT ( 'NONE', #155 ) ;
#25 = EDGE_LOOP ( 'NONE', ( #147 ) ) ;
#26 = DIRECTION ( 'NONE',  ( -3.491481338843133355E-15, 1.224646799147352961E-16, -1.000000000000000000 ) ) ;
#27 = DIRECTION ( 'NONE',  ( 0.0000000000000000000, 0.0000000000000000000, 1.000000000000000000 ) ) ;
#28 = DIRECTION ( 'NONE',  ( 4.275831445896957731E-31, 1.000000000000000000, 1.224646799147353207E-16 ) ) ;
#29 = FACE_OUTER_BOUND ( 'NONE', #167, .T. ) ;
#30 = CC_DESIGN_DATE_AND_TIME_ASSIGNMENT ( #57, #294, ( #56 ) ) ;
#31 = DIRECTION ( 'NONE',  ( -3.491481338843133355E-15, 1.224646799147352961E-16, -1.000000000000000000 ) ) ;
#32 = CALENDAR_DATE ( 2021, 29, 11 ) ;
#33 = PERSON_AND_ORGANIZATION_ROLE ( 'design_supplier' ) ;
#34 = DIRECTION ( 'NONE',  ( 5.677022680581394483E-31, 1.000000000000000000, 1.597939826802513908E-16 ) ) ;
#35 = ADVANCED_FACE ( 'NONE', ( #283, #91 ), #204, .T. ) ;
#36 = FACE_OUTER_BOUND ( 'NONE', #176, .T. ) ;
#37 = AXIS2_PLACEMENT_3D ( 'NONE', #297, #85, #265 ) ;
#38 = COORDINATED_UNIVERSAL_TIME_OFFSET ( 1, 0, .AHEAD. ) ;
#39 = ADVANCED_FACE ( 'NONE', ( #161, #248 ), #143, .T. ) ;
#40 = VERTEX_POINT ( 'NONE', #108 ) ;
#41 = ORIENTED_EDGE ( 'NONE', *, *, #186, .F. ) ;
#42 = MANIFOLD_SOLID_BREP ( 'Corps-Déplacer/Copier1[2]', #2 ) ;
#43 = ADVANCED_FACE ( 'NONE', ( #49, #139 ), #279, .T. ) ;
#44 = DIRECTION ( 'NONE',  ( -3.491481338843133355E-15, 1.224646799147352961E-16, -1.000000000000000000 ) ) ;
#45 = CARTESIAN_POINT ( 'NONE',  ( 6.332621528753465015E-14, -2.221184629893844062E-15, 18.13734891921752279 ) ) ;
#46 = DIRECTION ( 'NONE',  ( -3.491481338843133355E-15, 1.224646799147352961E-16, -1.000000000000000000 ) ) ;
#47 = AXIS2_PLACEMENT_3D ( 'NONE', #188, #287, #81 ) ;
#48 = PRODUCT ( '200049', '200049', '', ( #70 ) ) ;
#49 = FACE_OUTER_BOUND ( 'NONE', #285, .T. ) ;
#50 = EDGE_CURVE ( 'NONE', #270, #270, #16, .T. ) ;
#51 = CALENDAR_DATE ( 2021, 29, 11 ) ;
#52 = ORIENTED_EDGE ( 'NONE', *, *, #148, .F. ) ;
#53 = FACE_OUTER_BOUND ( 'NONE', #64, .T. ) ;
#54 = DIRECTION ( 'NONE',  ( -3.491481338843133355E-15, 1.224646799147352961E-16, -1.000000000000000000 ) ) ;
#55 = PERSON_AND_ORGANIZATION ( #196, #210 ) ;
#56 = SECURITY_CLASSIFICATION ( '', '', #100 ) ;
#57 = DATE_AND_TIME ( #32, #90 ) ;
#58 = DIRECTION ( 'NONE',  ( -4.275831445896957731E-31, -1.000000000000000000, -1.224646799147352961E-16 ) ) ;
#59 = PERSON_AND_ORGANIZATION ( #196, #210 ) ;
#60 = EDGE_LOOP ( 'NONE', ( #76 ) ) ;
#61 = AXIS2_PLACEMENT_3D ( 'NONE', #45, #209, #184 ) ;
#62 = ADVANCED_FACE ( 'NONE', ( #69, #229 ), #133, .T. ) ;
#63 = PLANE ( 'NONE',  #86 ) ;
#64 = EDGE_LOOP ( 'NONE', ( #233 ) ) ;
#65 = EDGE_LOOP ( 'NONE', ( #125 ) ) ;
#66 = CIRCLE ( 'NONE', #158, 0.5341624327025947805 ) ;
#67 = CARTESIAN_POINT ( 'NONE',  ( 1.316288464743861212E-13, 1.499999999999998668, 37.69999999999999574 ) ) ;
#68 = CIRCLE ( 'NONE', #197, 0.6784999999999992149 ) ;
#69 = FACE_BOUND ( 'NONE', #268, .T. ) ;
#70 = MECHANICAL_CONTEXT ( 'NONE', #198, 'mechanical' ) ;
#71 = DIRECTION ( 'NONE',  ( 0.0000000000000000000, -1.000000000000000000, 0.0000000000000000000 ) ) ;
#72 = APPROVAL_ROLE ( '' ) ;
#73 = DIRECTION ( 'NONE',  ( 4.275831445896957731E-31, 1.000000000000000000, 1.224646799147352961E-16 ) ) ;
#74 = ORIENTED_EDGE ( 'NONE', *, *, #175, .F. ) ;
#75 = ADVANCED_FACE ( 'NONE', ( #29 ), #226, .F. ) ;
#76 = ORIENTED_EDGE ( 'NONE', *, *, #289, .T. ) ;
#77 = CC_DESIGN_APPROVAL ( #237, ( #135 ) ) ;
#78 = CALENDAR_DATE ( 2021, 29, 11 ) ;
#79 = ORIENTED_EDGE ( 'NONE', *, *, #300, .F. ) ;
#80 = PERSON_AND_ORGANIZATION ( #196, #210 ) ;
#81 = DIRECTION ( 'NONE',  ( 0.0000000000000000000, 1.000000000000000000, 0.0000000000000000000 ) ) ;
#82 = DIRECTION ( 'NONE',  ( -3.491481338843133355E-15, 1.224646799147352961E-16, -1.000000000000000000 ) ) ;
#83 = DIRECTION ( 'NONE',  ( -3.491481338843133355E-15, 1.224646799147352961E-16, -1.000000000000000000 ) ) ;
#84 = AXIS2_PLACEMENT_3D ( 'NONE', #102, #122, #149 ) ;
#85 = DIRECTION ( 'NONE',  ( -3.491481338843133355E-15, 1.224646799147352961E-16, -1.000000000000000000 ) ) ;
#86 = AXIS2_PLACEMENT_3D ( 'NONE', #105, #193, #58 ) ;
#87 = CARTESIAN_POINT ( 'NONE',  ( 1.316288464743861212E-13, -4.616918432785520292E-15, 37.69999999999999574 ) ) ;
#88 = ORIENTED_EDGE ( 'NONE', *, *, #216, .F. ) ;
#89 = CARTESIAN_POINT ( 'NONE',  ( 1.326762908760390423E-13, 1.199999999999998845, 38.00000000000000000 ) ) ;
#90 = LOCAL_TIME ( 15, 58, 37.00000000000000000, #169 ) ;
#91 = FACE_OUTER_BOUND ( 'NONE', #192, .T. ) ;
#92 = DIRECTION ( 'NONE',  ( 0.0000000000000000000, 1.000000000000000000, 0.0000000000000000000 ) ) ;
#93 = PERSON_AND_ORGANIZATION ( #196, #210 ) ;
#94 = PRODUCT_RELATED_PRODUCT_CATEGORY ( 'detail', '', ( #48 ) ) ;
#95 = ORIENTED_EDGE ( 'NONE', *, *, #175, .T. ) ;
#96 = AXIS2_PLACEMENT_3D ( 'NONE', #200, #26, #181 ) ;
#97 = AXIS2_PLACEMENT_3D ( 'NONE', #141, #202, #116 ) ;
#98 = AXIS2_PLACEMENT_3D ( 'NONE', #3, #27, #208 ) ;
#99 = EDGE_LOOP ( 'NONE', ( #172 ) ) ;
#100 = SECURITY_CLASSIFICATION_LEVEL ( 'unclassified' ) ;
#101 = ORIENTED_EDGE ( 'NONE', *, *, #219, .F. ) ;
#102 = CARTESIAN_POINT ( 'NONE',  ( 0.0000000000000000000, 0.0000000000000000000, 0.0000000000000000000 ) ) ;
#103 = LOCAL_TIME ( 15, 58, 37.00000000000000000, #166 ) ;
#104 = SHAPE_DEFINITION_REPRESENTATION ( #159, #274 ) ;
#105 = CARTESIAN_POINT ( 'NONE',  ( 2.094888803305880013E-14, 5.087935062680338578E-33, 6.000000000000000000 ) ) ;
#106 = ADVANCED_FACE ( 'NONE', ( #137, #252 ), #17, .T. ) ;
#107 = FACE_OUTER_BOUND ( 'NONE', #288, .T. ) ;
#108 = CARTESIAN_POINT ( 'NONE',  ( 2.094888803305880013E-14, 0.6784999999999992149, 6.000000000000000000 ) ) ;
#109 = CARTESIAN_POINT ( 'NONE',  ( 2.127242516744049751E-14, 0.6249999999999983347, 6.092664718204937380 ) ) ;
#110 = CC_DESIGN_APPROVAL ( #156, ( #56 ) ) ;
#111 = VERTEX_POINT ( 'NONE', #180 ) ;
#112 = EDGE_CURVE ( 'NONE', #24, #24, #267, .T. ) ;
#113 = DIRECTION ( 'NONE',  ( 3.491481338843133355E-15, -1.224646799147352961E-16, 1.000000000000000000 ) ) ;
#114 = CARTESIAN_POINT ( 'NONE',  ( 0.0000000000000000000, 0.0000000000000000000, 0.0000000000000000000 ) ) ;
#115 = FACE_OUTER_BOUND ( 'NONE', #18, .T. ) ;
#116 = DIRECTION ( 'NONE',  ( 4.275831445896957731E-31, 1.000000000000000000, 1.224646799147352961E-16 ) ) ;
#117 = PERSON_AND_ORGANIZATION ( #196, #210 ) ;
#118 = ORIENTED_EDGE ( 'NONE', *, *, #112, .T. ) ;
#119 = CIRCLE ( 'NONE', #150, 0.6249999999999991118 ) ;
#120 = FACE_OUTER_BOUND ( 'NONE', #239, .T. ) ;
#121 = CC_DESIGN_DATE_AND_TIME_ASSIGNMENT ( #187, #144, ( #295 ) ) ;
#122 = DIRECTION ( 'NONE',  ( -3.491481338843133355E-15, 1.224646799147352961E-16, -1.000000000000000000 ) ) ;
#123 = AXIS2_PLACEMENT_3D ( 'NONE', #4, #250, #92 ) ;
#124 = DIRECTION ( 'NONE',  ( 0.0000000000000000000, 1.000000000000000000, 0.0000000000000000000 ) ) ;
#125 = ORIENTED_EDGE ( 'NONE', *, *, #186, .T. ) ;
#126 = APPROVAL_ROLE ( '' ) ;
#127 = DESIGN_CONTEXT ( 'detailed design', #244, 'design' ) ;
#128 = CARTESIAN_POINT ( 'NONE',  ( 4.660183614865709118E-14, 0.6553844939755796295, 13.34729635533384595 ) ) ;
#129 = DIRECTION ( 'NONE',  ( 3.491481338843133355E-15, -1.224646799147352961E-16, 1.000000000000000000 ) ) ;
#130 = EDGE_LOOP ( 'NONE', ( #118 ) ) ;
#131 = CC_DESIGN_PERSON_AND_ORGANIZATION_ASSIGNMENT ( #14, #211, ( #56 ) ) ;
#132 = CARTESIAN_POINT ( 'NONE',  ( 4.538925740496073362E-14, 0.6249999999999983347, 13.00000000000000000 ) ) ;
#133 = CONICAL_SURFACE ( 'NONE', #7, 1.499999999999997558, 0.1745329251994260922 ) ;
#134 = LOCAL_TIME ( 15, 58, 37.00000000000000000, #171 ) ;
#135 = PRODUCT_DEFINITION_FORMATION_WITH_SPECIFIED_SOURCE ( 'ANY', '', #48, .NOT_KNOWN. ) ;
#136 =( NAMED_UNIT ( * ) PLANE_ANGLE_UNIT ( ) SI_UNIT ( $, .RADIAN. ) );
#137 = FACE_OUTER_BOUND ( 'NONE', #25, .T. ) ;
#138 = PERSON_AND_ORGANIZATION ( #196, #210 ) ;
#139 = FACE_OUTER_BOUND ( 'NONE', #65, .T. ) ;
#140 = CLOSED_SHELL ( 'NONE', ( #276, #106, #39, #168, #62, #225, #264, #75 ) ) ;
#141 = CARTESIAN_POINT ( 'NONE',  ( 1.326762908760390423E-13, 8.998558695971099120E-33, 38.00000000000000000 ) ) ;
#142 = DIRECTION ( 'NONE',  ( 4.275831445896957731E-31, 1.000000000000000000, 1.224646799147352961E-16 ) ) ;
#143 = CYLINDRICAL_SURFACE ( 'NONE', #96, 0.6249999999999995559 ) ;
#144 = DATE_TIME_ROLE ( 'creation_date' ) ;
#145 = ORIENTED_EDGE ( 'NONE', *, *, #300, .T. ) ;
#146 = DIRECTION ( 'NONE',  ( 0.0000000000000000000, 1.000000000000000000, 0.0000000000000000000 ) ) ;
#147 = ORIENTED_EDGE ( 'NONE', *, *, #201, .F. ) ;
#148 = EDGE_CURVE ( 'NONE', #179, #179, #66, .T. ) ;
#149 = DIRECTION ( 'NONE',  ( 4.275831445896957731E-31, 1.000000000000000000, 1.224646799147353207E-16 ) ) ;
#150 = AXIS2_PLACEMENT_3D ( 'NONE', #293, #83, #221 ) ;
#151 = CARTESIAN_POINT ( 'NONE',  ( 1.326762908760390423E-13, -4.653657836759941152E-15, 38.00000000000000000 ) ) ;
#152 = ADVANCED_FACE ( 'NONE', ( #115 ), #207, .T. ) ;
#153 = ORIENTED_EDGE ( 'NONE', *, *, #50, .F. ) ;
#154 = AXIS2_PLACEMENT_3D ( 'NONE', #5, #185, #6 ) ;
#155 = CARTESIAN_POINT ( 'NONE',  ( 6.332621528753465015E-14, 1.499999999999995559, 18.13734891921752279 ) ) ;
#156 = APPROVAL ( #19, 'UNSPECIFIED' ) ;
#157 = FACE_OUTER_BOUND ( 'NONE', #99, .T. ) ;
#158 = AXIS2_PLACEMENT_3D ( 'NONE', #281, #46, #28 ) ;
#159 = PRODUCT_DEFINITION_SHAPE ( 'NONE', 'NONE',  #295 ) ;
#160 = DIRECTION ( 'NONE',  ( -3.491481338843133355E-15, 1.224646799147352961E-16, -1.000000000000000000 ) ) ;
#161 = FACE_OUTER_BOUND ( 'NONE', #174, .T. ) ;
#162 = APPLICATION_PROTOCOL_DEFINITION ( 'international standard', 'config_control_design', 1994, #244 ) ;
#163 = DIRECTION ( 'NONE',  ( -5.677022680581394483E-31, -1.000000000000000000, -1.597939826802513908E-16 ) ) ;
#164 = CIRCLE ( 'NONE', #173, 0.6784999999999999920 ) ;
#165 = DIRECTION ( 'NONE',  ( 3.491481338843133355E-15, -1.224646799147352961E-16, 1.000000000000000000 ) ) ;
#166 = COORDINATED_UNIVERSAL_TIME_OFFSET ( 1, 0, .AHEAD. ) ;
#167 = EDGE_LOOP ( 'NONE', ( #153 ) ) ;
#168 = ADVANCED_FACE ( 'NONE', ( #157, #245 ), #273, .F. ) ;
#169 = COORDINATED_UNIVERSAL_TIME_OFFSET ( 1, 0, .AHEAD. ) ;
#170 = CYLINDRICAL_SURFACE ( 'NONE', #84, 1.500000000000000444 ) ;
#171 = COORDINATED_UNIVERSAL_TIME_OFFSET ( 1, 0, .AHEAD. ) ;
#172 = ORIENTED_EDGE ( 'NONE', *, *, #289, .F. ) ;
#173 = AXIS2_PLACEMENT_3D ( 'NONE', #257, #54, #146 ) ;
#174 = EDGE_LOOP ( 'NONE', ( #88 ) ) ;
#175 = EDGE_CURVE ( 'NONE', #241, #241, #302, .T. ) ;
#176 = EDGE_LOOP ( 'NONE', ( #101 ) ) ;
#177 = AXIS2_PLACEMENT_3D ( 'NONE', #206, #160, #183 ) ;
#178 = CIRCLE ( 'NONE', #37, 0.6250000000000000000 ) ;
#179 = VERTEX_POINT ( 'NONE', #20 ) ;
#180 = CARTESIAN_POINT ( 'NONE',  ( 8.728703347107833388E-16, 0.6784999999999992149, 0.2500000000000000000 ) ) ;
#181 = DIRECTION ( 'NONE',  ( 4.275831445896958607E-31, 1.000000000000000000, 1.224646799147353207E-16 ) ) ;
#182 = CIRCLE ( 'NONE', #195, 0.6784999999999999920 ) ;
#183 = DIRECTION ( 'NONE',  ( 0.0000000000000000000, 1.000000000000000000, 0.0000000000000000000 ) ) ;
#184 = DIRECTION ( 'NONE',  ( 0.0000000000000000000, 1.000000000000000000, 0.0000000000000000000 ) ) ;
#185 = DIRECTION ( 'NONE',  ( 3.491481338843133355E-15, -1.224646799147352961E-16, 1.000000000000000000 ) ) ;
#186 = EDGE_CURVE ( 'NONE', #40, #40, #164, .T. ) ;
#187 = DATE_AND_TIME ( #51, #103 ) ;
#188 = CARTESIAN_POINT ( 'NONE',  ( 4.660183614865709118E-14, -1.634572375883072414E-15, 13.34729635533384595 ) ) ;
#189 = EDGE_LOOP ( 'NONE', ( #52 ) ) ;
#190 = CARTESIAN_POINT ( 'NONE',  ( 8.728703347107829444E-16, -3.061616997868381169E-17, 0.2499999999999998890 ) ) ;
#191 = APPROVAL_PERSON_ORGANIZATION ( #55, #156, #126 ) ;
#192 = EDGE_LOOP ( 'NONE', ( #145 ) ) ;
#193 = DIRECTION ( 'NONE',  ( 3.491481338843133355E-15, -1.224646799147352961E-16, 1.000000000000000000 ) ) ;
#194 = CC_DESIGN_PERSON_AND_ORGANIZATION_ASSIGNMENT ( #93, #8, ( #295 ) ) ;
#195 = AXIS2_PLACEMENT_3D ( 'NONE', #13, #44, #124 ) ;
#196 = PERSON ( 'UNSPECIFIED', 'UNSPECIFIED', 'UNSPECIFIED', ('UNSPECIFIED'), ('UNSPECIFIED'), ('UNSPECIFIED') ) ;
#197 = AXIS2_PLACEMENT_3D ( 'NONE', #190, #234, #34 ) ;
#198 = APPLICATION_CONTEXT ( 'configuration controlled 3d designs of mechanical parts and assemblies' ) ;
#199 = DIRECTION ( 'NONE',  ( -4.275831445896957731E-31, -1.000000000000000000, -1.224646799147352961E-16 ) ) ;
#200 = CARTESIAN_POINT ( 'NONE',  ( 0.0000000000000000000, 0.0000000000000000000, 0.0000000000000000000 ) ) ;
#201 = EDGE_CURVE ( 'NONE', #301, #301, #182, .T. ) ;
#202 = DIRECTION ( 'NONE',  ( -3.491481338843133355E-15, 1.224646799147352961E-16, -1.000000000000000000 ) ) ;
#203 =( NAMED_UNIT ( * ) SI_UNIT ( $, .STERADIAN. ) SOLID_ANGLE_UNIT ( ) );
#204 = CONICAL_SURFACE ( 'NONE', #222, 0.6784999999999992149, 0.5235987755982927094 ) ;
#205 = AXIS2_PLACEMENT_3D ( 'NONE', #151, #82, #291 ) ;
#206 = CARTESIAN_POINT ( 'NONE',  ( 1.326762908760390423E-13, -4.653657836759941152E-15, 38.00000000000000000 ) ) ;
#207 = PLANE ( 'NONE',  #154 ) ;
#208 = DIRECTION ( 'NONE',  ( 1.000000000000000000, 0.0000000000000000000, 0.0000000000000000000 ) ) ;
#209 = DIRECTION ( 'NONE',  ( -3.491481338843133355E-15, 1.224646799147352961E-16, -1.000000000000000000 ) ) ;
#210 = ORGANIZATION ( 'UNSPECIFIED', 'UNSPECIFIED', '' ) ;
#211 = PERSON_AND_ORGANIZATION_ROLE ( 'classification_officer' ) ;
#212 = PLANE ( 'NONE',  #269 ) ;
#213 = PERSON_AND_ORGANIZATION_ROLE ( 'creator' ) ;
#214 = CC_DESIGN_APPROVAL ( #247, ( #295 ) ) ;
#215 = FACE_BOUND ( 'NONE', #272, .T. ) ;
#216 = EDGE_CURVE ( 'NONE', #22, #22, #119, .T. ) ;
#217 = CC_DESIGN_SECURITY_CLASSIFICATION ( #56, ( #135 ) ) ;
#218 = DIRECTION ( 'NONE',  ( -3.491481338843133355E-15, 1.224646799147352961E-16, -1.000000000000000000 ) ) ;
#219 = EDGE_CURVE ( 'NONE', #275, #275, #253, .T. ) ;
#220 = CARTESIAN_POINT ( 'NONE',  ( 2.094888803305880013E-14, 0.6784999999999992149, 6.000000000000000000 ) ) ;
#221 = DIRECTION ( 'NONE',  ( 0.0000000000000000000, 1.000000000000000000, 0.0000000000000000000 ) ) ;
#222 = AXIS2_PLACEMENT_3D ( 'NONE', #277, #165, #163 ) ;
#223 =( GEOMETRIC_REPRESENTATION_CONTEXT ( 3 ) GLOBAL_UNCERTAINTY_ASSIGNED_CONTEXT ( ( #298 ) ) GLOBAL_UNIT_ASSIGNED_CONTEXT ( ( #299, #136, #203 ) ) REPRESENTATION_CONTEXT ( 'NONE', 'WORKASPACE' ) );
#224 = CARTESIAN_POINT ( 'NONE',  ( 4.538925740496073362E-14, -1.734723475976807094E-15, 13.00000000000000000 ) ) ;
#225 = ADVANCED_FACE ( 'NONE', ( #9, #53 ), #170, .T. ) ;
#226 = PLANE ( 'NONE',  #97 ) ;
#227 = APPROVAL_DATE_TIME ( #230, #247 ) ;
#228 = CARTESIAN_POINT ( 'NONE',  ( 6.332621528753465015E-14, -2.221184629893844062E-15, 18.13734891921752279 ) ) ;
#229 = FACE_OUTER_BOUND ( 'NONE', #130, .T. ) ;
#230 = DATE_AND_TIME ( #78, #246 ) ;
#231 = ORIENTED_EDGE ( 'NONE', *, *, #148, .T. ) ;
#232 = APPROVAL_PERSON_ORGANIZATION ( #138, #247, #72 ) ;
#233 = ORIENTED_EDGE ( 'NONE', *, *, #219, .T. ) ;
#234 = DIRECTION ( 'NONE',  ( -3.491481338843133355E-15, 1.224646799147352961E-16, -1.000000000000000000 ) ) ;
#235 = CALENDAR_DATE ( 2021, 29, 11 ) ;
#236 = EDGE_LOOP ( 'NONE', ( #271 ) ) ;
#237 = APPROVAL ( #286, 'UNSPECIFIED' ) ;
#238 = CC_DESIGN_PERSON_AND_ORGANIZATION_ASSIGNMENT ( #80, #33, ( #135 ) ) ;
#239 = EDGE_LOOP ( 'NONE', ( #231 ) ) ;
#240 = AXIS2_PLACEMENT_3D ( 'NONE', #87, #218, #255 ) ;
#241 = VERTEX_POINT ( 'NONE', #128 ) ;
#242 = MANIFOLD_SOLID_BREP ( 'Corps-Déplacer/Copier1[1]', #140 ) ;
#243 = VERTEX_POINT ( 'NONE', #132 ) ;
#244 = APPLICATION_CONTEXT ( 'configuration controlled 3d designs of mechanical parts and assemblies' ) ;
#245 = FACE_OUTER_BOUND ( 'NONE', #254, .T. ) ;
#246 = LOCAL_TIME ( 15, 58, 37.00000000000000000, #251 ) ;
#247 = APPROVAL ( #280, 'UNSPECIFIED' ) ;
#248 = FACE_OUTER_BOUND ( 'NONE', #60, .T. ) ;
#249 = PERSON_AND_ORGANIZATION_ROLE ( 'design_owner' ) ;
#250 = DIRECTION ( 'NONE',  ( -3.491481338843133355E-15, 1.224646799147352961E-16, -1.000000000000000000 ) ) ;
#251 = COORDINATED_UNIVERSAL_TIME_OFFSET ( 1, 0, .AHEAD. ) ;
#252 = FACE_BOUND ( 'NONE', #236, .T. ) ;
#253 = CIRCLE ( 'NONE', #240, 1.500000000000003331 ) ;
#254 = EDGE_LOOP ( 'NONE', ( #95 ) ) ;
#255 = DIRECTION ( 'NONE',  ( 0.0000000000000000000, 1.000000000000000000, 0.0000000000000000000 ) ) ;
#256 = APPROVAL_DATE_TIME ( #296, #156 ) ;
#257 = CARTESIAN_POINT ( 'NONE',  ( 2.094888803305880013E-14, -7.347880794884118750E-16, 6.000000000000000000 ) ) ;
#258 = ORIENTED_EDGE ( 'NONE', *, *, #201, .T. ) ;
#259 = APPROVAL_ROLE ( '' ) ;
#260 = CC_DESIGN_PERSON_AND_ORGANIZATION_ASSIGNMENT ( #59, #213, ( #135 ) ) ;
#261 = APPROVAL_PERSON_ORGANIZATION ( #117, #237, #259 ) ;
#262 = DATE_AND_TIME ( #15, #134 ) ;
#263 = ORIENTED_EDGE ( 'NONE', *, *, #50, .T. ) ;
#264 = ADVANCED_FACE ( 'NONE', ( #36, #215 ), #292, .T. ) ;
#265 = DIRECTION ( 'NONE',  ( 0.0000000000000000000, 1.000000000000000000, 0.0000000000000000000 ) ) ;
#266 = AXIS2_PLACEMENT_3D ( 'NONE', #114, #278, #73 ) ;
#267 = CIRCLE ( 'NONE', #61, 1.499999999999997558 ) ;
#268 = EDGE_LOOP ( 'NONE', ( #74 ) ) ;
#269 = AXIS2_PLACEMENT_3D ( 'NONE', #290, #129, #199 ) ;
#270 = VERTEX_POINT ( 'NONE', #89 ) ;
#271 = ORIENTED_EDGE ( 'NONE', *, *, #216, .T. ) ;
#272 = EDGE_LOOP ( 'NONE', ( #263 ) ) ;
#273 = TOROIDAL_SURFACE ( 'NONE', #23, 2.625000000000000000, 2.000000000000000000 ) ;
#274 = ADVANCED_BREP_SHAPE_REPRESENTATION ( '200049', ( #242, #42, #98 ), #223 ) ;
#275 = VERTEX_POINT ( 'NONE', #67 ) ;
#276 = ADVANCED_FACE ( 'NONE', ( #107 ), #63, .F. ) ;
#277 = CARTESIAN_POINT ( 'NONE',  ( 8.728703347107829444E-16, -3.061616997868381169E-17, 0.2499999999999998890 ) ) ;
#278 = DIRECTION ( 'NONE',  ( -3.491481338843133355E-15, 1.224646799147352961E-16, -1.000000000000000000 ) ) ;
#279 = CYLINDRICAL_SURFACE ( 'NONE', #266, 0.6784999999999996589 ) ;
#280 = APPROVAL_STATUS ( 'not_yet_approved' ) ;
#281 = CARTESIAN_POINT ( 'NONE',  ( -4.176724353349733896E-31, 1.464997694057662139E-32, -1.196261399676748350E-16 ) ) ;
#282 = APPLICATION_PROTOCOL_DEFINITION ( 'international standard', 'config_control_design', 1994, #198 ) ;
#283 = FACE_BOUND ( 'NONE', #189, .T. ) ;
#284 = PERSON_AND_ORGANIZATION ( #196, #210 ) ;
#285 = EDGE_LOOP ( 'NONE', ( #79 ) ) ;
#286 = APPROVAL_STATUS ( 'not_yet_approved' ) ;
#287 = DIRECTION ( 'NONE',  ( -3.491481338843133355E-15, 1.224646799147352961E-16, -1.000000000000000000 ) ) ;
#288 = EDGE_LOOP ( 'NONE', ( #258 ) ) ;
#289 = EDGE_CURVE ( 'NONE', #243, #243, #178, .T. ) ;
#290 = CARTESIAN_POINT ( 'NONE',  ( -2.088362176674866948E-31, 7.324988470288310693E-33, -5.981306998383741749E-17 ) ) ;
#291 = DIRECTION ( 'NONE',  ( 0.0000000000000000000, 1.000000000000000000, 0.0000000000000000000 ) ) ;
#292 = CONICAL_SURFACE ( 'NONE', #205, 1.200000000000003286, 0.7853981633974453924 ) ;
#293 = CARTESIAN_POINT ( 'NONE',  ( 2.127242516744049751E-14, -7.461362345427686452E-16, 6.092664718204937380 ) ) ;
#294 = DATE_TIME_ROLE ( 'classification_date' ) ;
#295 = PRODUCT_DEFINITION ( 'UNKNOWN', '', #135, #127 ) ;
#296 = DATE_AND_TIME ( #235, #21 ) ;
#297 = CARTESIAN_POINT ( 'NONE',  ( 4.538925740496073362E-14, -1.592040838891558701E-15, 13.00000000000000000 ) ) ;
#298 = UNCERTAINTY_MEASURE_WITH_UNIT (LENGTH_MEASURE( 1.000000000000000082E-05 ), #299, 'distance_accuracy_value', 'NONE');
#299 =( LENGTH_UNIT ( ) NAMED_UNIT ( * ) SI_UNIT ( .MILLI., .METRE. ) );
#300 = EDGE_CURVE ( 'NONE', #111, #111, #68, .T. ) ;
#301 = VERTEX_POINT ( 'NONE', #220 ) ;
#302 = CIRCLE ( 'NONE', #47, 0.6553844939755811838 ) ;
#303 = ADVANCED_FACE ( 'NONE', ( #120 ), #212, .F. ) ;
ENDSEC;
END-ISO-10303-21;
