ISO-10303-21;
HEADER;
FILE_DESCRIPTION (( 'STEP AP203' ),
    '1' );
FILE_NAME ('200048.step',
    '2021-11-29T14:58:36',
    ( '' ),
    ( '' ),
    'SwSTEP 2.0',
    'SolidWorks 2019',
    '' );
FILE_SCHEMA (( 'CONFIG_CONTROL_DESIGN' ));
ENDSEC;

DATA;
#1 = CIRCLE ( 'NONE', #188, 0.5500000000000000444 ) ;
#2 = FACE_OUTER_BOUND ( 'NONE', #241, .T. ) ;
#3 = PLANE ( 'NONE',  #13 ) ;
#4 = DIRECTION ( 'NONE',  ( 0.0000000000000000000, 1.000000000000000000, 0.0000000000000000000 ) ) ;
#5 = CC_DESIGN_PERSON_AND_ORGANIZATION_ASSIGNMENT ( #185, #59, ( #26 ) ) ;
#6 = DIRECTION ( 'NONE',  ( -3.491481338843133355E-15, 1.224646799147352961E-16, -1.000000000000000000 ) ) ;
#7 = DIRECTION ( 'NONE',  ( 0.0000000000000000000, 1.000000000000000000, 0.0000000000000000000 ) ) ;
#8 = CC_DESIGN_PERSON_AND_ORGANIZATION_ASSIGNMENT ( #248, #83, ( #197 ) ) ;
#9 = CARTESIAN_POINT ( 'NONE',  ( 2.094888803305880013E-14, -7.347880794884118750E-16, 6.000000000000000000 ) ) ;
#10 = DATE_AND_TIME ( #211, #122 ) ;
#11 = DIRECTION ( 'NONE',  ( 0.0000000000000000000, 1.000000000000000000, 0.0000000000000000000 ) ) ;
#12 = DATE_TIME_ROLE ( 'classification_date' ) ;
#13 = AXIS2_PLACEMENT_3D ( 'NONE', #145, #96, #191 ) ;
#14 = CARTESIAN_POINT ( 'NONE',  ( 2.094888803305880013E-14, 4.825477100714513634E-33, 6.000000000000000000 ) ) ;
#15 = CALENDAR_DATE ( 2021, 29, 11 ) ;
#16 = CARTESIAN_POINT ( 'NONE',  ( 8.728703347107833388E-16, 0.6434999999999991838, 0.2500000000000000000 ) ) ;
#17 = APPROVAL_DATE_TIME ( #35, #198 ) ;
#18 = CYLINDRICAL_SURFACE ( 'NONE', #21, 1.500000000000000444 ) ;
#19 = COORDINATED_UNIVERSAL_TIME_OFFSET ( 1, 0, .AHEAD. ) ;
#20 = ORIENTED_EDGE ( 'NONE', *, *, #110, .T. ) ;
#21 = AXIS2_PLACEMENT_3D ( 'NONE', #33, #108, #151 ) ;
#22 = FACE_OUTER_BOUND ( 'NONE', #116, .T. ) ;
#23 = FACE_BOUND ( 'NONE', #260, .T. ) ;
#24 = EDGE_LOOP ( 'NONE', ( #135 ) ) ;
#25 = DIRECTION ( 'NONE',  ( 3.491481338843133355E-15, -1.224646799147352961E-16, 1.000000000000000000 ) ) ;
#26 = PRODUCT_DEFINITION_FORMATION_WITH_SPECIFIED_SOURCE ( 'ANY', '', #197, .NOT_KNOWN. ) ;
#27 = CARTESIAN_POINT ( 'NONE',  ( 4.538925740496073362E-14, -1.592040838891558701E-15, 13.00000000000000000 ) ) ;
#28 = ADVANCED_FACE ( 'NONE', ( #23, #71 ), #47, .T. ) ;
#29 = DIRECTION ( 'NONE',  ( 4.275831445896957731E-31, 1.000000000000000000, 1.224646799147352961E-16 ) ) ;
#30 = DIRECTION ( 'NONE',  ( 3.491481338843133355E-15, -1.224646799147352961E-16, 1.000000000000000000 ) ) ;
#31 = DIRECTION ( 'NONE',  ( -4.275831445896957731E-31, -1.000000000000000000, -1.224646799147352961E-16 ) ) ;
#32 = CIRCLE ( 'NONE', #46, 1.200000000000003286 ) ;
#33 = CARTESIAN_POINT ( 'NONE',  ( 0.0000000000000000000, 0.0000000000000000000, 0.0000000000000000000 ) ) ;
#34 = CARTESIAN_POINT ( 'NONE',  ( 1.316288464743861212E-13, 1.499999999999998668, 37.69999999999999574 ) ) ;
#35 = DATE_AND_TIME ( #102, #62 ) ;
#36 = EDGE_LOOP ( 'NONE', ( #240 ) ) ;
#37 = ADVANCED_FACE ( 'NONE', ( #2, #199 ), #94, .T. ) ;
#38 = ORIENTED_EDGE ( 'NONE', *, *, #272, .F. ) ;
#39 = EDGE_LOOP ( 'NONE', ( #20 ) ) ;
#40 = CC_DESIGN_APPROVAL ( #81, ( #26 ) ) ;
#41 = ORIENTED_EDGE ( 'NONE', *, *, #86, .F. ) ;
#42 = DESIGN_CONTEXT ( 'detailed design', #297, 'design' ) ;
#43 = CARTESIAN_POINT ( 'NONE',  ( 6.481130338557338987E-14, -2.273274508349777075E-15, 18.56269505568887013 ) ) ;
#44 = EDGE_LOOP ( 'NONE', ( #67 ) ) ;
#45 = ADVANCED_FACE ( 'NONE', ( #120 ), #49, .F. ) ;
#46 = AXIS2_PLACEMENT_3D ( 'NONE', #202, #82, #229 ) ;
#47 = CONICAL_SURFACE ( 'NONE', #89, 1.499999999999997558, 0.1745329251994257036 ) ;
#48 = TOROIDAL_SURFACE ( 'NONE', #144, 2.550000000000000266, 2.000000000000000000 ) ;
#49 = PLANE ( 'NONE',  #129 ) ;
#50 = CARTESIAN_POINT ( 'NONE',  ( 6.481130338557338987E-14, -2.273274508349777075E-15, 18.56269505568887013 ) ) ;
#51 = CC_DESIGN_PERSON_AND_ORGANIZATION_ASSIGNMENT ( #134, #205, ( #261 ) ) ;
#52 = EDGE_LOOP ( 'NONE', ( #287 ) ) ;
#53 = CIRCLE ( 'NONE', #92, 0.6434999999999999609 ) ;
#54 = FACE_OUTER_BOUND ( 'NONE', #36, .T. ) ;
#55 =( LENGTH_UNIT ( ) NAMED_UNIT ( * ) SI_UNIT ( .MILLI., .METRE. ) );
#56 = DIRECTION ( 'NONE',  ( -3.491481338843133355E-15, 1.224646799147352961E-16, -1.000000000000000000 ) ) ;
#57 = SHAPE_DEFINITION_REPRESENTATION ( #136, #75 ) ;
#58 = CARTESIAN_POINT ( 'NONE',  ( 4.660183614865709118E-14, 0.5803844939755811172, 13.34729635533384595 ) ) ;
#59 = PERSON_AND_ORGANIZATION_ROLE ( 'design_supplier' ) ;
#60 = ADVANCED_FACE ( 'NONE', ( #121 ), #3, .F. ) ;
#61 = FACE_OUTER_BOUND ( 'NONE', #139, .T. ) ;
#62 = LOCAL_TIME ( 15, 58, 36.00000000000000000, #224 ) ;
#63 = VERTEX_POINT ( 'NONE', #159 ) ;
#64 = APPROVAL_STATUS ( 'not_yet_approved' ) ;
#65 = ADVANCED_FACE ( 'NONE', ( #285, #189 ), #174, .T. ) ;
#66 = COORDINATED_UNIVERSAL_TIME_OFFSET ( 1, 0, .AHEAD. ) ;
#67 = ORIENTED_EDGE ( 'NONE', *, *, #228, .F. ) ;
#68 = ORIENTED_EDGE ( 'NONE', *, *, #141, .F. ) ;
#69 = CONICAL_SURFACE ( 'NONE', #88, 0.6434999999999991838, 0.5235987755982922653 ) ;
#70 = DIRECTION ( 'NONE',  ( -4.275831445896957731E-31, -1.000000000000000000, -1.224646799147352961E-16 ) ) ;
#71 = FACE_OUTER_BOUND ( 'NONE', #39, .T. ) ;
#72 = CC_DESIGN_APPROVAL ( #234, ( #299 ) ) ;
#73 = FACE_OUTER_BOUND ( 'NONE', #194, .T. ) ;
#74 = CARTESIAN_POINT ( 'NONE',  ( 4.660183614865709118E-14, -1.634572375883072414E-15, 13.34729635533384595 ) ) ;
#75 = ADVANCED_BREP_SHAPE_REPRESENTATION ( '200048', ( #95, #301, #150 ), #238 ) ;
#76 = CARTESIAN_POINT ( 'NONE',  ( -3.080702339551759890E-31, 1.080564921623752457E-32, -8.823482185852149740E-17 ) ) ;
#77 = DIRECTION ( 'NONE',  ( 3.491481338843133355E-15, -1.224646799147352961E-16, 1.000000000000000000 ) ) ;
#78 = CALENDAR_DATE ( 2021, 29, 11 ) ;
#79 = CYLINDRICAL_SURFACE ( 'NONE', #162, 0.5499999999999996003 ) ;
#80 = DATE_AND_TIME ( #78, #156 ) ;
#81 = APPROVAL ( #233, 'UNSPECIFIED' ) ;
#82 = DIRECTION ( 'NONE',  ( -3.491481338843133355E-15, 1.224646799147352961E-16, -1.000000000000000000 ) ) ;
#83 = PERSON_AND_ORGANIZATION_ROLE ( 'design_owner' ) ;
#84 = VERTEX_POINT ( 'NONE', #276 ) ;
#85 = AXIS2_PLACEMENT_3D ( 'NONE', #74, #176, #7 ) ;
#86 = EDGE_CURVE ( 'NONE', #250, #250, #104, .T. ) ;
#87 = CARTESIAN_POINT ( 'NONE',  ( 0.0000000000000000000, 0.0000000000000000000, 0.0000000000000000000 ) ) ;
#88 = AXIS2_PLACEMENT_3D ( 'NONE', #289, #77, #157 ) ;
#89 = AXIS2_PLACEMENT_3D ( 'NONE', #50, #25, #239 ) ;
#90 = ADVANCED_FACE ( 'NONE', ( #196, #73 ), #48, .F. ) ;
#91 = EDGE_LOOP ( 'NONE', ( #41 ) ) ;
#92 = AXIS2_PLACEMENT_3D ( 'NONE', #9, #126, #268 ) ;
#93 = EDGE_CURVE ( 'NONE', #152, #152, #227, .T. ) ;
#94 = CYLINDRICAL_SURFACE ( 'NONE', #265, 0.6434999999999995168 ) ;
#95 = MANIFOLD_SOLID_BREP ( 'Corps-Déplacer/Copier1[1]', #256 ) ;
#96 = DIRECTION ( 'NONE',  ( -3.491481338843133355E-15, 1.224646799147352961E-16, -1.000000000000000000 ) ) ;
#97 = EDGE_LOOP ( 'NONE', ( #264 ) ) ;
#98 = DIRECTION ( 'NONE',  ( 4.275831445896957731E-31, 1.000000000000000000, 1.224646799147352961E-16 ) ) ;
#99 = EDGE_LOOP ( 'NONE', ( #187 ) ) ;
#100 = CARTESIAN_POINT ( 'NONE',  ( 2.151432209034269786E-14, 0.5499999999999983791, 6.161946750507693693 ) ) ;
#101 = DIRECTION ( 'NONE',  ( 2.992898126475894571E-31, 1.000000000000000000, 8.424259304471683998E-17 ) ) ;
#102 = CALENDAR_DATE ( 2021, 29, 11 ) ;
#103 = CARTESIAN_POINT ( 'NONE',  ( 2.094888803305880013E-14, 0.6434999999999991838, 6.000000000000000000 ) ) ;
#104 = CIRCLE ( 'NONE', #280, 0.6434999999999999609 ) ;
#105 =( NAMED_UNIT ( * ) SI_UNIT ( $, .STERADIAN. ) SOLID_ANGLE_UNIT ( ) );
#106 = FACE_BOUND ( 'NONE', #171, .T. ) ;
#107 = MECHANICAL_CONTEXT ( 'NONE', #193, 'mechanical' ) ;
#108 = DIRECTION ( 'NONE',  ( -3.491481338843133355E-15, 1.224646799147352961E-16, -1.000000000000000000 ) ) ;
#109 = DATE_AND_TIME ( #15, #279 ) ;
#110 = EDGE_CURVE ( 'NONE', #183, #183, #275, .T. ) ;
#111 = CARTESIAN_POINT ( 'NONE',  ( 0.0000000000000000000, 0.0000000000000000000, 0.0000000000000000000 ) ) ;
#112 = AXIS2_PLACEMENT_3D ( 'NONE', #14, #223, #128 ) ;
#113 = APPROVAL_ROLE ( '' ) ;
#114 = ORIENTED_EDGE ( 'NONE', *, *, #283, .F. ) ;
#115 = EDGE_CURVE ( 'NONE', #131, #131, #1, .T. ) ;
#116 = EDGE_LOOP ( 'NONE', ( #38 ) ) ;
#117 = ADVANCED_FACE ( 'NONE', ( #22, #215 ), #172, .T. ) ;
#118 = DIRECTION ( 'NONE',  ( 4.275831445896957731E-31, 1.000000000000000000, 1.224646799147352961E-16 ) ) ;
#119 = CARTESIAN_POINT ( 'NONE',  ( 2.094888803305880013E-14, 4.825477100714513634E-33, 6.000000000000000000 ) ) ;
#120 = FACE_OUTER_BOUND ( 'NONE', #99, .T. ) ;
#121 = FACE_OUTER_BOUND ( 'NONE', #278, .T. ) ;
#122 = LOCAL_TIME ( 15, 58, 36.00000000000000000, #181 ) ;
#123 = DIRECTION ( 'NONE',  ( 3.491481338843133355E-15, -1.224646799147352961E-16, 1.000000000000000000 ) ) ;
#124 = FACE_OUTER_BOUND ( 'NONE', #213, .T. ) ;
#125 = COORDINATED_UNIVERSAL_TIME_OFFSET ( 1, 0, .AHEAD. ) ;
#126 = DIRECTION ( 'NONE',  ( -3.491481338843133355E-15, 1.224646799147352961E-16, -1.000000000000000000 ) ) ;
#127 = APPROVAL_PERSON_ORGANIZATION ( #130, #198, #203 ) ;
#128 = DIRECTION ( 'NONE',  ( -4.275831445896957731E-31, -1.000000000000000000, -1.224646799147352961E-16 ) ) ;
#129 = AXIS2_PLACEMENT_3D ( 'NONE', #119, #123, #70 ) ;
#130 = PERSON_AND_ORGANIZATION ( #149, #182 ) ;
#131 = VERTEX_POINT ( 'NONE', #230 ) ;
#132 = APPROVAL_STATUS ( 'not_yet_approved' ) ;
#133 = VERTEX_POINT ( 'NONE', #100 ) ;
#134 = PERSON_AND_ORGANIZATION ( #149, #182 ) ;
#135 = ORIENTED_EDGE ( 'NONE', *, *, #217, .T. ) ;
#136 = PRODUCT_DEFINITION_SHAPE ( 'NONE', 'NONE',  #261 ) ;
#137 = CC_DESIGN_DATE_AND_TIME_ASSIGNMENT ( #109, #295, ( #261 ) ) ;
#138 = EDGE_LOOP ( 'NONE', ( #218 ) ) ;
#139 = EDGE_LOOP ( 'NONE', ( #235 ) ) ;
#140 = ORIENTED_EDGE ( 'NONE', *, *, #141, .T. ) ;
#141 = EDGE_CURVE ( 'NONE', #232, #232, #214, .T. ) ;
#142 = DIRECTION ( 'NONE',  ( 0.0000000000000000000, 1.000000000000000000, 0.0000000000000000000 ) ) ;
#143 = ORIENTED_EDGE ( 'NONE', *, *, #192, .F. ) ;
#144 = AXIS2_PLACEMENT_3D ( 'NONE', #266, #6, #98 ) ;
#145 = CARTESIAN_POINT ( 'NONE',  ( 1.326762908760390423E-13, 8.998558695971099120E-33, 38.00000000000000000 ) ) ;
#146 = ADVANCED_FACE ( 'NONE', ( #247, #54 ), #18, .T. ) ;
#147 = EDGE_LOOP ( 'NONE', ( #220 ) ) ;
#148 = CARTESIAN_POINT ( 'NONE',  ( 2.094888803305880013E-14, -7.347880794884118750E-16, 6.000000000000000000 ) ) ;
#149 = PERSON ( 'UNSPECIFIED', 'UNSPECIFIED', 'UNSPECIFIED', ('UNSPECIFIED'), ('UNSPECIFIED'), ('UNSPECIFIED') ) ;
#150 = AXIS2_PLACEMENT_3D ( 'NONE', #87, #298, #153 ) ;
#151 = DIRECTION ( 'NONE',  ( 4.275831445896957731E-31, 1.000000000000000000, 1.224646799147353207E-16 ) ) ;
#152 = VERTEX_POINT ( 'NONE', #58 ) ;
#153 = DIRECTION ( 'NONE',  ( 1.000000000000000000, 0.0000000000000000000, 0.0000000000000000000 ) ) ;
#154 = FACE_OUTER_BOUND ( 'NONE', #24, .T. ) ;
#155 = PERSON_AND_ORGANIZATION ( #149, #182 ) ;
#156 = LOCAL_TIME ( 15, 58, 36.00000000000000000, #66 ) ;
#157 = DIRECTION ( 'NONE',  ( -2.992898126475894571E-31, -1.000000000000000000, -8.424259304471683998E-17 ) ) ;
#158 = APPROVAL_DATE_TIME ( #10, #81 ) ;
#159 = CARTESIAN_POINT ( 'NONE',  ( 2.094888803305880013E-14, 0.6434999999999991838, 6.000000000000000000 ) ) ;
#160 = APPLICATION_PROTOCOL_DEFINITION ( 'international standard', 'config_control_design', 1994, #297 ) ;
#161 = PERSON_AND_ORGANIZATION_ROLE ( 'creator' ) ;
#162 = AXIS2_PLACEMENT_3D ( 'NONE', #111, #225, #177 ) ;
#163 = AXIS2_PLACEMENT_3D ( 'NONE', #43, #267, #237 ) ;
#164 = EDGE_LOOP ( 'NONE', ( #140 ) ) ;
#165 = CC_DESIGN_PERSON_AND_ORGANIZATION_ASSIGNMENT ( #300, #161, ( #26 ) ) ;
#166 = ORIENTED_EDGE ( 'NONE', *, *, #192, .T. ) ;
#167 = EDGE_LOOP ( 'NONE', ( #166 ) ) ;
#168 = UNCERTAINTY_MEASURE_WITH_UNIT (LENGTH_MEASURE( 1.000000000000000082E-05 ), #55, 'distance_accuracy_value', 'NONE');
#169 = CARTESIAN_POINT ( 'NONE',  ( 0.0000000000000000000, 0.0000000000000000000, 0.0000000000000000000 ) ) ;
#170 = DIRECTION ( 'NONE',  ( -3.491481338843133355E-15, 1.224646799147352961E-16, -1.000000000000000000 ) ) ;
#171 = EDGE_LOOP ( 'NONE', ( #236 ) ) ;
#172 = CONICAL_SURFACE ( 'NONE', #291, 1.200000000000003286, 0.7853981633974453924 ) ;
#173 = ADVANCED_FACE ( 'NONE', ( #154 ), #273, .F. ) ;
#174 = CONICAL_SURFACE ( 'NONE', #303, 0.5499999999999991562, 0.5235987755982924874 ) ;
#175 = CARTESIAN_POINT ( 'NONE',  ( 2.151432209034269786E-14, -7.546208364525680129E-16, 6.161946750507693693 ) ) ;
#176 = DIRECTION ( 'NONE',  ( -3.491481338843133355E-15, 1.224646799147352961E-16, -1.000000000000000000 ) ) ;
#177 = DIRECTION ( 'NONE',  ( 4.275831445896957731E-31, 1.000000000000000000, 1.224646799147352961E-16 ) ) ;
#178 = CARTESIAN_POINT ( 'NONE',  ( 1.316288464743861212E-13, -4.616918432785520292E-15, 37.69999999999999574 ) ) ;
#179 = DIRECTION ( 'NONE',  ( 0.0000000000000000000, 1.000000000000000000, 0.0000000000000000000 ) ) ;
#180 = FACE_OUTER_BOUND ( 'NONE', #164, .T. ) ;
#181 = COORDINATED_UNIVERSAL_TIME_OFFSET ( 1, 0, .AHEAD. ) ;
#182 = ORGANIZATION ( 'UNSPECIFIED', 'UNSPECIFIED', '' ) ;
#183 = VERTEX_POINT ( 'NONE', #294 ) ;
#184 = SECURITY_CLASSIFICATION_LEVEL ( 'unclassified' ) ;
#185 = PERSON_AND_ORGANIZATION ( #149, #182 ) ;
#186 = AXIS2_PLACEMENT_3D ( 'NONE', #204, #274, #101 ) ;
#187 = ORIENTED_EDGE ( 'NONE', *, *, #86, .T. ) ;
#188 = AXIS2_PLACEMENT_3D ( 'NONE', #27, #222, #142 ) ;
#189 = FACE_BOUND ( 'NONE', #147, .T. ) ;
#190 =( NAMED_UNIT ( * ) PLANE_ANGLE_UNIT ( ) SI_UNIT ( $, .RADIAN. ) );
#191 = DIRECTION ( 'NONE',  ( 4.275831445896957731E-31, 1.000000000000000000, 1.224646799147352961E-16 ) ) ;
#192 = EDGE_CURVE ( 'NONE', #207, #207, #32, .T. ) ;
#193 = APPLICATION_CONTEXT ( 'configuration controlled 3d designs of mechanical parts and assemblies' ) ;
#194 = EDGE_LOOP ( 'NONE', ( #281 ) ) ;
#195 = CIRCLE ( 'NONE', #209, 0.5499999999999991562 ) ;
#196 = FACE_OUTER_BOUND ( 'NONE', #97, .T. ) ;
#197 = PRODUCT ( '200048', '200048', '', ( #107 ) ) ;
#198 = APPROVAL ( #132, 'UNSPECIFIED' ) ;
#199 = FACE_OUTER_BOUND ( 'NONE', #52, .T. ) ;
#200 = DIRECTION ( 'NONE',  ( -3.491481338843133355E-15, 1.224646799147352961E-16, -1.000000000000000000 ) ) ;
#201 = DATE_AND_TIME ( #208, #221 ) ;
#202 = CARTESIAN_POINT ( 'NONE',  ( 1.326762908760390423E-13, -4.653657836759941152E-15, 38.00000000000000000 ) ) ;
#203 = APPROVAL_ROLE ( '' ) ;
#204 = CARTESIAN_POINT ( 'NONE',  ( 8.728703347107831416E-16, -3.061616997868381785E-17, 0.2499999999999999445 ) ) ;
#205 = PERSON_AND_ORGANIZATION_ROLE ( 'creator' ) ;
#206 = ADVANCED_FACE ( 'NONE', ( #244 ), #292, .T. ) ;
#207 = VERTEX_POINT ( 'NONE', #296 ) ;
#208 = CALENDAR_DATE ( 2021, 29, 11 ) ;
#209 = AXIS2_PLACEMENT_3D ( 'NONE', #270, #56, #11 ) ;
#210 = DIRECTION ( 'NONE',  ( -3.491481338843133355E-15, 1.224646799147352961E-16, -1.000000000000000000 ) ) ;
#211 = CALENDAR_DATE ( 2021, 29, 11 ) ;
#212 = PRODUCT_RELATED_PRODUCT_CATEGORY ( 'detail', '', ( #197 ) ) ;
#213 = EDGE_LOOP ( 'NONE', ( #114 ) ) ;
#214 = CIRCLE ( 'NONE', #186, 0.6434999999999991838 ) ;
#215 = FACE_BOUND ( 'NONE', #167, .T. ) ;
#216 = CLOSED_SHELL ( 'NONE', ( #173, #282, #37, #206 ) ) ;
#217 = EDGE_CURVE ( 'NONE', #84, #84, #226, .T. ) ;
#218 = ORIENTED_EDGE ( 'NONE', *, *, #110, .F. ) ;
#219 = DIRECTION ( 'NONE',  ( -3.491481338843133355E-15, 1.224646799147352961E-16, -1.000000000000000000 ) ) ;
#220 = ORIENTED_EDGE ( 'NONE', *, *, #283, .T. ) ;
#221 = LOCAL_TIME ( 15, 58, 36.00000000000000000, #125 ) ;
#222 = DIRECTION ( 'NONE',  ( -3.491481338843133355E-15, 1.224646799147352961E-16, -1.000000000000000000 ) ) ;
#223 = DIRECTION ( 'NONE',  ( 3.491481338843133355E-15, -1.224646799147352961E-16, 1.000000000000000000 ) ) ;
#224 = COORDINATED_UNIVERSAL_TIME_OFFSET ( 1, 0, .AHEAD. ) ;
#225 = DIRECTION ( 'NONE',  ( -3.491481338843133355E-15, 1.224646799147352961E-16, -1.000000000000000000 ) ) ;
#226 = CIRCLE ( 'NONE', #259, 0.4991624327025949159 ) ;
#227 = CIRCLE ( 'NONE', #85, 0.5803844939755827825 ) ;
#228 = EDGE_CURVE ( 'NONE', #63, #63, #53, .T. ) ;
#229 = DIRECTION ( 'NONE',  ( 0.0000000000000000000, 1.000000000000000000, 0.0000000000000000000 ) ) ;
#230 = CARTESIAN_POINT ( 'NONE',  ( 4.538925740496073362E-14, 0.5499999999999983791, 13.00000000000000000 ) ) ;
#231 = PERSON_AND_ORGANIZATION ( #149, #182 ) ;
#232 = VERTEX_POINT ( 'NONE', #16 ) ;
#233 = APPROVAL_STATUS ( 'not_yet_approved' ) ;
#234 = APPROVAL ( #64, 'UNSPECIFIED' ) ;
#235 = ORIENTED_EDGE ( 'NONE', *, *, #115, .T. ) ;
#236 = ORIENTED_EDGE ( 'NONE', *, *, #217, .F. ) ;
#237 = DIRECTION ( 'NONE',  ( 0.0000000000000000000, 1.000000000000000000, 0.0000000000000000000 ) ) ;
#238 =( GEOMETRIC_REPRESENTATION_CONTEXT ( 3 ) GLOBAL_UNCERTAINTY_ASSIGNED_CONTEXT ( ( #168 ) ) GLOBAL_UNIT_ASSIGNED_CONTEXT ( ( #55, #190, #105 ) ) REPRESENTATION_CONTEXT ( 'NONE', 'WORKASPACE' ) );
#239 = DIRECTION ( 'NONE',  ( 0.0000000000000000000, -1.000000000000000000, 0.0000000000000000000 ) ) ;
#240 = ORIENTED_EDGE ( 'NONE', *, *, #272, .T. ) ;
#241 = EDGE_LOOP ( 'NONE', ( #68 ) ) ;
#242 = DIRECTION ( 'NONE',  ( -3.491481338843133355E-15, 1.224646799147352961E-16, -1.000000000000000000 ) ) ;
#243 = APPROVAL_PERSON_ORGANIZATION ( #277, #234, #293 ) ;
#244 = FACE_OUTER_BOUND ( 'NONE', #44, .T. ) ;
#245 = CARTESIAN_POINT ( 'NONE',  ( -1.540351169775879945E-31, 5.402824608118762285E-33, -4.411741092926074870E-17 ) ) ;
#246 = ADVANCED_FACE ( 'NONE', ( #124, #61 ), #79, .T. ) ;
#247 = FACE_OUTER_BOUND ( 'NONE', #138, .T. ) ;
#248 = PERSON_AND_ORGANIZATION ( #149, #182 ) ;
#249 = CC_DESIGN_SECURITY_CLASSIFICATION ( #299, ( #26 ) ) ;
#250 = VERTEX_POINT ( 'NONE', #103 ) ;
#251 = PERSON_AND_ORGANIZATION_ROLE ( 'classification_officer' ) ;
#252 = VERTEX_POINT ( 'NONE', #34 ) ;
#253 = CC_DESIGN_DATE_AND_TIME_ASSIGNMENT ( #201, #12, ( #299 ) ) ;
#254 = APPLICATION_PROTOCOL_DEFINITION ( 'international standard', 'config_control_design', 1994, #193 ) ;
#255 = CIRCLE ( 'NONE', #263, 1.500000000000003331 ) ;
#256 = CLOSED_SHELL ( 'NONE', ( #45, #65, #246, #90, #28, #146, #117, #60 ) ) ;
#257 = ORIENTED_EDGE ( 'NONE', *, *, #93, .F. ) ;
#258 = CC_DESIGN_PERSON_AND_ORGANIZATION_ASSIGNMENT ( #155, #251, ( #299 ) ) ;
#259 = AXIS2_PLACEMENT_3D ( 'NONE', #76, #210, #29 ) ;
#260 = EDGE_LOOP ( 'NONE', ( #257 ) ) ;
#261 = PRODUCT_DEFINITION ( 'UNKNOWN', '', #26, #42 ) ;
#262 = DIRECTION ( 'NONE',  ( 0.0000000000000000000, 1.000000000000000000, 0.0000000000000000000 ) ) ;
#263 = AXIS2_PLACEMENT_3D ( 'NONE', #178, #200, #179 ) ;
#264 = ORIENTED_EDGE ( 'NONE', *, *, #115, .F. ) ;
#265 = AXIS2_PLACEMENT_3D ( 'NONE', #169, #288, #118 ) ;
#266 = CARTESIAN_POINT ( 'NONE',  ( 4.538925740496073362E-14, -1.734723475976807094E-15, 13.00000000000000000 ) ) ;
#267 = DIRECTION ( 'NONE',  ( -3.491481338843133355E-15, 1.224646799147352961E-16, -1.000000000000000000 ) ) ;
#268 = DIRECTION ( 'NONE',  ( 0.0000000000000000000, 1.000000000000000000, 0.0000000000000000000 ) ) ;
#269 = CC_DESIGN_APPROVAL ( #198, ( #261 ) ) ;
#270 = CARTESIAN_POINT ( 'NONE',  ( 2.151432209034269786E-14, -7.546208364525680129E-16, 6.161946750507693693 ) ) ;
#271 = APPROVAL_DATE_TIME ( #80, #234 ) ;
#272 = EDGE_CURVE ( 'NONE', #252, #252, #255, .T. ) ;
#273 = PLANE ( 'NONE',  #290 ) ;
#274 = DIRECTION ( 'NONE',  ( -3.491481338843133355E-15, 1.224646799147352961E-16, -1.000000000000000000 ) ) ;
#275 = CIRCLE ( 'NONE', #163, 1.499999999999997558 ) ;
#276 = CARTESIAN_POINT ( 'NONE',  ( -9.463679131915806782E-32, 0.4991624327025949159, -2.710505431213761085E-17 ) ) ;
#277 = PERSON_AND_ORGANIZATION ( #149, #182 ) ;
#278 = EDGE_LOOP ( 'NONE', ( #143 ) ) ;
#279 = LOCAL_TIME ( 15, 58, 36.00000000000000000, #19 ) ;
#280 = AXIS2_PLACEMENT_3D ( 'NONE', #148, #242, #286 ) ;
#281 = ORIENTED_EDGE ( 'NONE', *, *, #93, .T. ) ;
#282 = ADVANCED_FACE ( 'NONE', ( #106, #180 ), #69, .T. ) ;
#283 = EDGE_CURVE ( 'NONE', #133, #133, #195, .T. ) ;
#284 = CARTESIAN_POINT ( 'NONE',  ( 1.326762908760390423E-13, -4.653657836759941152E-15, 38.00000000000000000 ) ) ;
#285 = FACE_OUTER_BOUND ( 'NONE', #91, .T. ) ;
#286 = DIRECTION ( 'NONE',  ( 0.0000000000000000000, 1.000000000000000000, 0.0000000000000000000 ) ) ;
#287 = ORIENTED_EDGE ( 'NONE', *, *, #228, .T. ) ;
#288 = DIRECTION ( 'NONE',  ( -3.491481338843133355E-15, 1.224646799147352961E-16, -1.000000000000000000 ) ) ;
#289 = CARTESIAN_POINT ( 'NONE',  ( 8.728703347107831416E-16, -3.061616997868381785E-17, 0.2499999999999999445 ) ) ;
#290 = AXIS2_PLACEMENT_3D ( 'NONE', #245, #30, #31 ) ;
#291 = AXIS2_PLACEMENT_3D ( 'NONE', #284, #170, #262 ) ;
#292 = PLANE ( 'NONE',  #112 ) ;
#293 = APPROVAL_ROLE ( '' ) ;
#294 = CARTESIAN_POINT ( 'NONE',  ( 6.481130338557338987E-14, 1.499999999999995559, 18.56269505568887013 ) ) ;
#295 = DATE_TIME_ROLE ( 'creation_date' ) ;
#296 = CARTESIAN_POINT ( 'NONE',  ( 1.326762908760390423E-13, 1.199999999999998845, 38.00000000000000000 ) ) ;
#297 = APPLICATION_CONTEXT ( 'configuration controlled 3d designs of mechanical parts and assemblies' ) ;
#298 = DIRECTION ( 'NONE',  ( 0.0000000000000000000, 0.0000000000000000000, 1.000000000000000000 ) ) ;
#299 = SECURITY_CLASSIFICATION ( '', '', #184 ) ;
#300 = PERSON_AND_ORGANIZATION ( #149, #182 ) ;
#301 = MANIFOLD_SOLID_BREP ( 'Corps-Déplacer/Copier1[2]', #216 ) ;
#302 = APPROVAL_PERSON_ORGANIZATION ( #231, #81, #113 ) ;
#303 = AXIS2_PLACEMENT_3D ( 'NONE', #175, #219, #4 ) ;
ENDSEC;
END-ISO-10303-21;
