ISO-10303-21;
HEADER;
FILE_DESCRIPTION (( 'STEP AP203' ),
    '1' );
FILE_NAME ('200047.step',
    '2021-11-29T14:58:35',
    ( '' ),
    ( '' ),
    'SwSTEP 2.0',
    'SolidWorks 2019',
    '' );
FILE_SCHEMA (( 'CONFIG_CONTROL_DESIGN' ));
ENDSEC;

DATA;
#1 = CIRCLE ( 'NONE', #77, 0.5749999999999998446 ) ;
#2 = CARTESIAN_POINT ( 'NONE',  ( -1.561730327005364878E-31, 5.477812597251855713E-33, -4.472973432883443011E-17 ) ) ;
#3 = FACE_OUTER_BOUND ( 'NONE', #23, .T. ) ;
#4 = DIRECTION ( 'NONE',  ( -2.947100144433417506E-31, -1.000000000000000000, -8.295349445183671262E-17 ) ) ;
#5 = APPLICATION_PROTOCOL_DEFINITION ( 'international standard', 'config_control_design', 1994, #175 ) ;
#6 = PRODUCT_DEFINITION_SHAPE ( 'NONE', 'NONE',  #282 ) ;
#7 = CC_DESIGN_SECURITY_CLASSIFICATION ( #118, ( #278 ) ) ;
#8 = ORIENTED_EDGE ( 'NONE', *, *, #87, .F. ) ;
#9 = ORIENTED_EDGE ( 'NONE', *, *, #50, .F. ) ;
#10 = CC_DESIGN_PERSON_AND_ORGANIZATION_ASSIGNMENT ( #205, #271, ( #278 ) ) ;
#11 = CARTESIAN_POINT ( 'NONE',  ( 2.094888803305880013E-14, 0.6534999999999991926, 6.000000000000000000 ) ) ;
#12 = PERSON_AND_ORGANIZATION ( #91, #292 ) ;
#13 = DIRECTION ( 'NONE',  ( -3.491481338843133355E-15, 1.224646799147352961E-16, -1.000000000000000000 ) ) ;
#14 = COORDINATED_UNIVERSAL_TIME_OFFSET ( 1, 0, .AHEAD. ) ;
#15 = AXIS2_PLACEMENT_3D ( 'NONE', #289, #240, #168 ) ;
#16 = AXIS2_PLACEMENT_3D ( 'NONE', #275, #109, #298 ) ;
#17 = DIRECTION ( 'NONE',  ( -3.491481338843133355E-15, 1.224646799147352961E-16, -1.000000000000000000 ) ) ;
#18 = FACE_OUTER_BOUND ( 'NONE', #139, .T. ) ;
#19 = CYLINDRICAL_SURFACE ( 'NONE', #112, 0.5749999999999995115 ) ;
#20 = APPROVAL_STATUS ( 'not_yet_approved' ) ;
#21 = ADVANCED_FACE ( 'NONE', ( #30, #99 ), #186, .T. ) ;
#22 = EDGE_LOOP ( 'NONE', ( #254 ) ) ;
#23 = EDGE_LOOP ( 'NONE', ( #194 ) ) ;
#24 = TOROIDAL_SURFACE ( 'NONE', #119, 2.575000000000000178, 2.000000000000000000 ) ;
#25 = ORIENTED_EDGE ( 'NONE', *, *, #33, .F. ) ;
#26 = CARTESIAN_POINT ( 'NONE',  ( 1.326762908760390423E-13, -4.653657836759941152E-15, 38.00000000000000000 ) ) ;
#27 = CONICAL_SURFACE ( 'NONE', #97, 0.6534999999999991926, 0.5235987755982922653 ) ;
#28 = DIRECTION ( 'NONE',  ( -3.491481338843133355E-15, 1.224646799147352961E-16, -1.000000000000000000 ) ) ;
#29 = CARTESIAN_POINT ( 'NONE',  ( 2.094888803305880013E-14, 4.900465089847606377E-33, 6.000000000000000000 ) ) ;
#30 = FACE_OUTER_BOUND ( 'NONE', #191, .T. ) ;
#31 = DIRECTION ( 'NONE',  ( -3.491481338843133355E-15, 1.224646799147352961E-16, -1.000000000000000000 ) ) ;
#32 = AXIS2_PLACEMENT_3D ( 'NONE', #37, #53, #135 ) ;
#33 = EDGE_CURVE ( 'NONE', #79, #79, #269, .T. ) ;
#34 = DIRECTION ( 'NONE',  ( 4.275831445896957731E-31, 1.000000000000000000, 1.224646799147352961E-16 ) ) ;
#35 = VERTEX_POINT ( 'NONE', #296 ) ;
#36 = COORDINATED_UNIVERSAL_TIME_OFFSET ( 1, 0, .AHEAD. ) ;
#37 = CARTESIAN_POINT ( 'NONE',  ( 8.728703347107831416E-16, -3.061616997868381785E-17, 0.2499999999999999445 ) ) ;
#38 = LOCAL_TIME ( 15, 58, 35.00000000000000000, #36 ) ;
#39 = DATE_AND_TIME ( #78, #66 ) ;
#40 = VERTEX_POINT ( 'NONE', #149 ) ;
#41 = CARTESIAN_POINT ( 'NONE',  ( 0.0000000000000000000, 0.0000000000000000000, 0.0000000000000000000 ) ) ;
#42 = LOCAL_TIME ( 15, 58, 35.00000000000000000, #108 ) ;
#43 = PRODUCT ( '200047', '200047', '', ( #64 ) ) ;
#44 = EDGE_LOOP ( 'NONE', ( #68 ) ) ;
#45 = CARTESIAN_POINT ( 'NONE',  ( 2.094888803305880013E-14, -7.347880794884118750E-16, 6.000000000000000000 ) ) ;
#46 = FACE_OUTER_BOUND ( 'NONE', #257, .T. ) ;
#47 = AXIS2_PLACEMENT_3D ( 'NONE', #284, #31, #124 ) ;
#48 = DIRECTION ( 'NONE',  ( -4.275831445896957731E-31, -1.000000000000000000, -1.224646799147352961E-16 ) ) ;
#49 = ORIENTED_EDGE ( 'NONE', *, *, #272, .F. ) ;
#50 = EDGE_CURVE ( 'NONE', #210, #210, #136, .T. ) ;
#51 = APPLICATION_CONTEXT ( 'configuration controlled 3d designs of mechanical parts and assemblies' ) ;
#52 = DIRECTION ( 'NONE',  ( -3.491481338843133355E-15, 1.224646799147352961E-16, -1.000000000000000000 ) ) ;
#53 = DIRECTION ( 'NONE',  ( -3.491481338843133355E-15, 1.224646799147352961E-16, -1.000000000000000000 ) ) ;
#54 =( LENGTH_UNIT ( ) NAMED_UNIT ( * ) SI_UNIT ( .MILLI., .METRE. ) );
#55 = PLANE ( 'NONE',  #16 ) ;
#56 = SECURITY_CLASSIFICATION_LEVEL ( 'unclassified' ) ;
#57 = FACE_OUTER_BOUND ( 'NONE', #22, .T. ) ;
#58 = DIRECTION ( 'NONE',  ( 1.000000000000000000, 0.0000000000000000000, 0.0000000000000000000 ) ) ;
#59 = DIRECTION ( 'NONE',  ( 0.0000000000000000000, 1.000000000000000000, 0.0000000000000000000 ) ) ;
#60 = PERSON_AND_ORGANIZATION ( #91, #292 ) ;
#61 = AXIS2_PLACEMENT_3D ( 'NONE', #26, #239, #117 ) ;
#62 = VERTEX_POINT ( 'NONE', #125 ) ;
#63 = CC_DESIGN_PERSON_AND_ORGANIZATION_ASSIGNMENT ( #102, #300, ( #282 ) ) ;
#64 = MECHANICAL_CONTEXT ( 'NONE', #175, 'mechanical' ) ;
#65 = EDGE_LOOP ( 'NONE', ( #8 ) ) ;
#66 = LOCAL_TIME ( 15, 58, 35.00000000000000000, #159 ) ;
#67 = AXIS2_PLACEMENT_3D ( 'NONE', #2, #263, #48 ) ;
#68 = ORIENTED_EDGE ( 'NONE', *, *, #138, .F. ) ;
#69 = CIRCLE ( 'NONE', #131, 1.500000000000003331 ) ;
#70 = ORIENTED_EDGE ( 'NONE', *, *, #232, .T. ) ;
#71 = ADVANCED_FACE ( 'NONE', ( #123 ), #217, .F. ) ;
#72 = EDGE_LOOP ( 'NONE', ( #280 ) ) ;
#73 = FACE_BOUND ( 'NONE', #72, .T. ) ;
#74 = EDGE_LOOP ( 'NONE', ( #49 ) ) ;
#75 = VERTEX_POINT ( 'NONE', #11 ) ;
#76 = DIRECTION ( 'NONE',  ( 0.0000000000000000000, 1.000000000000000000, 0.0000000000000000000 ) ) ;
#77 = AXIS2_PLACEMENT_3D ( 'NONE', #288, #28, #96 ) ;
#78 = CALENDAR_DATE ( 2021, 29, 11 ) ;
#79 = VERTEX_POINT ( 'NONE', #250 ) ;
#80 = CARTESIAN_POINT ( 'NONE',  ( 0.0000000000000000000, 0.0000000000000000000, 0.0000000000000000000 ) ) ;
#81 = APPROVAL ( #20, 'UNSPECIFIED' ) ;
#82 = CARTESIAN_POINT ( 'NONE',  ( 1.326762908760390423E-13, 1.199999999999998845, 38.00000000000000000 ) ) ;
#83 = DATE_TIME_ROLE ( 'creation_date' ) ;
#84 = CARTESIAN_POINT ( 'NONE',  ( 0.0000000000000000000, 0.0000000000000000000, 0.0000000000000000000 ) ) ;
#85 = DATE_AND_TIME ( #134, #103 ) ;
#86 = CONICAL_SURFACE ( 'NONE', #167, 0.5749999999999990674, 0.5235987755982938197 ) ;
#87 = EDGE_CURVE ( 'NONE', #155, #155, #1, .T. ) ;
#88 = APPROVAL_ROLE ( '' ) ;
#89 = AXIS2_PLACEMENT_3D ( 'NONE', #41, #244, #157 ) ;
#90 = AXIS2_PLACEMENT_3D ( 'NONE', #179, #267, #130 ) ;
#91 = PERSON ( 'UNSPECIFIED', 'UNSPECIFIED', 'UNSPECIFIED', ('UNSPECIFIED'), ('UNSPECIFIED'), ('UNSPECIFIED') ) ;
#92 = CLOSED_SHELL ( 'NONE', ( #71, #198, #301, #279 ) ) ;
#93 = APPROVAL ( #129, 'UNSPECIFIED' ) ;
#94 = FACE_OUTER_BOUND ( 'NONE', #165, .T. ) ;
#95 = DIRECTION ( 'NONE',  ( 0.0000000000000000000, 1.000000000000000000, 0.0000000000000000000 ) ) ;
#96 = DIRECTION ( 'NONE',  ( 0.0000000000000000000, 1.000000000000000000, 0.0000000000000000000 ) ) ;
#97 = AXIS2_PLACEMENT_3D ( 'NONE', #121, #220, #4 ) ;
#98 = ORIENTED_EDGE ( 'NONE', *, *, #152, .F. ) ;
#99 = FACE_BOUND ( 'NONE', #222, .T. ) ;
#100 =( NAMED_UNIT ( * ) SI_UNIT ( $, .STERADIAN. ) SOLID_ANGLE_UNIT ( ) );
#101 = VERTEX_POINT ( 'NONE', #270 ) ;
#102 = PERSON_AND_ORGANIZATION ( #91, #292 ) ;
#103 = LOCAL_TIME ( 15, 58, 35.00000000000000000, #14 ) ;
#104 = FACE_OUTER_BOUND ( 'NONE', #74, .T. ) ;
#105 = CIRCLE ( 'NONE', #144, 1.499999999999997558 ) ;
#106 = PERSON_AND_ORGANIZATION ( #91, #292 ) ;
#107 = CARTESIAN_POINT ( 'NONE',  ( 4.660183614865709749E-14, 0.6053844939755801402, 13.34729635533384773 ) ) ;
#108 = COORDINATED_UNIVERSAL_TIME_OFFSET ( 1, 0, .AHEAD. ) ;
#109 = DIRECTION ( 'NONE',  ( 3.491481338843133355E-15, -1.224646799147352961E-16, 1.000000000000000000 ) ) ;
#110 = APPLICATION_PROTOCOL_DEFINITION ( 'international standard', 'config_control_design', 1994, #51 ) ;
#111 = CARTESIAN_POINT ( 'NONE',  ( 1.326762908760390423E-13, 8.998558695971099120E-33, 38.00000000000000000 ) ) ;
#112 = AXIS2_PLACEMENT_3D ( 'NONE', #84, #13, #225 ) ;
#113 = EDGE_LOOP ( 'NONE', ( #235 ) ) ;
#114 = ORIENTED_EDGE ( 'NONE', *, *, #152, .T. ) ;
#115 = ORIENTED_EDGE ( 'NONE', *, *, #127, .T. ) ;
#116 = ADVANCED_FACE ( 'NONE', ( #46 ), #169, .F. ) ;
#117 = DIRECTION ( 'NONE',  ( 0.0000000000000000000, 1.000000000000000000, 0.0000000000000000000 ) ) ;
#118 = SECURITY_CLASSIFICATION ( '', '', #56 ) ;
#119 = AXIS2_PLACEMENT_3D ( 'NONE', #174, #120, #145 ) ;
#120 = DIRECTION ( 'NONE',  ( -3.491481338843133355E-15, 1.224646799147352961E-16, -1.000000000000000000 ) ) ;
#121 = CARTESIAN_POINT ( 'NONE',  ( 8.728703347107831416E-16, -3.061616997868381785E-17, 0.2499999999999999445 ) ) ;
#122 =( NAMED_UNIT ( * ) PLANE_ANGLE_UNIT ( ) SI_UNIT ( $, .RADIAN. ) );
#123 = FACE_OUTER_BOUND ( 'NONE', #255, .T. ) ;
#124 = DIRECTION ( 'NONE',  ( 0.0000000000000000000, 1.000000000000000000, 0.0000000000000000000 ) ) ;
#125 = CARTESIAN_POINT ( 'NONE',  ( 2.142361074425437273E-14, 0.5749999999999984013, 6.135965988394159965 ) ) ;
#126 = CALENDAR_DATE ( 2021, 29, 11 ) ;
#127 = EDGE_CURVE ( 'NONE', #243, #243, #242, .T. ) ;
#128 = FACE_OUTER_BOUND ( 'NONE', #44, .T. ) ;
#129 = APPROVAL_STATUS ( 'not_yet_approved' ) ;
#130 = DIRECTION ( 'NONE',  ( 4.275831445896957731E-31, 1.000000000000000000, 1.224646799147353207E-16 ) ) ;
#131 = AXIS2_PLACEMENT_3D ( 'NONE', #133, #294, #59 ) ;
#132 = APPROVAL_ROLE ( '' ) ;
#133 = CARTESIAN_POINT ( 'NONE',  ( 1.316288464743861212E-13, -4.616918432785520292E-15, 37.69999999999999574 ) ) ;
#134 = CALENDAR_DATE ( 2021, 29, 11 ) ;
#135 = DIRECTION ( 'NONE',  ( 2.947100144433417506E-31, 1.000000000000000000, 8.295349445183671262E-17 ) ) ;
#136 = CIRCLE ( 'NONE', #249, 1.200000000000003286 ) ;
#137 = ORIENTED_EDGE ( 'NONE', *, *, #212, .F. ) ;
#138 = EDGE_CURVE ( 'NONE', #62, #62, #214, .T. ) ;
#139 = EDGE_LOOP ( 'NONE', ( #9 ) ) ;
#140 = LOCAL_TIME ( 15, 58, 35.00000000000000000, #154 ) ;
#141 = EDGE_CURVE ( 'NONE', #160, #160, #189, .T. ) ;
#142 = DIRECTION ( 'NONE',  ( -3.491481338843133355E-15, 1.224646799147352961E-16, -1.000000000000000000 ) ) ;
#143 = DIRECTION ( 'NONE',  ( 3.491481338843133355E-15, -1.224646799147352961E-16, 1.000000000000000000 ) ) ;
#144 = AXIS2_PLACEMENT_3D ( 'NONE', #151, #229, #76 ) ;
#145 = DIRECTION ( 'NONE',  ( 4.275831445896957731E-31, 1.000000000000000000, 1.224646799147352961E-16 ) ) ;
#146 = CC_DESIGN_DATE_AND_TIME_ASSIGNMENT ( #85, #187, ( #118 ) ) ;
#147 = DIRECTION ( 'NONE',  ( -4.275831445896957731E-31, -1.000000000000000000, -1.224646799147352961E-16 ) ) ;
#148 = DIRECTION ( 'NONE',  ( -3.491481338843133355E-15, 1.224646799147352961E-16, -1.000000000000000000 ) ) ;
#149 = CARTESIAN_POINT ( 'NONE',  ( 6.431627401956046822E-14, 1.499999999999995559, 18.42091301019841865 ) ) ;
#150 = CC_DESIGN_APPROVAL ( #93, ( #118 ) ) ;
#151 = CARTESIAN_POINT ( 'NONE',  ( 6.431627401956046822E-14, -2.255911215531132738E-15, 18.42091301019841865 ) ) ;
#152 = EDGE_CURVE ( 'NONE', #75, #75, #287, .T. ) ;
#153 = CARTESIAN_POINT ( 'NONE',  ( 2.142361074425437273E-14, -7.514391107363931761E-16, 6.135965988394159965 ) ) ;
#154 = COORDINATED_UNIVERSAL_TIME_OFFSET ( 1, 0, .AHEAD. ) ;
#155 = VERTEX_POINT ( 'NONE', #227 ) ;
#156 = PERSON_AND_ORGANIZATION ( #91, #292 ) ;
#157 = DIRECTION ( 'NONE',  ( 4.275831445896958607E-31, 1.000000000000000000, 1.224646799147352961E-16 ) ) ;
#158 = AXIS2_PLACEMENT_3D ( 'NONE', #45, #142, #95 ) ;
#159 = COORDINATED_UNIVERSAL_TIME_OFFSET ( 1, 0, .AHEAD. ) ;
#160 = VERTEX_POINT ( 'NONE', #107 ) ;
#161 = PERSON_AND_ORGANIZATION_ROLE ( 'design_owner' ) ;
#162 = AXIS2_PLACEMENT_3D ( 'NONE', #80, #211, #58 ) ;
#163 = EDGE_LOOP ( 'NONE', ( #98 ) ) ;
#164 = ORIENTED_EDGE ( 'NONE', *, *, #141, .F. ) ;
#165 = EDGE_LOOP ( 'NONE', ( #221 ) ) ;
#166 = APPROVAL_PERSON_ORGANIZATION ( #203, #218, #132 ) ;
#167 = AXIS2_PLACEMENT_3D ( 'NONE', #153, #17, #183 ) ;
#168 = DIRECTION ( 'NONE',  ( 0.0000000000000000000, 1.000000000000000000, 0.0000000000000000000 ) ) ;
#169 = PLANE ( 'NONE',  #172 ) ;
#170 = FACE_OUTER_BOUND ( 'NONE', #65, .T. ) ;
#171 = PRODUCT_RELATED_PRODUCT_CATEGORY ( 'detail', '', ( #43 ) ) ;
#172 = AXIS2_PLACEMENT_3D ( 'NONE', #29, #143, #147 ) ;
#173 = AXIS2_PLACEMENT_3D ( 'NONE', #223, #276, #273 ) ;
#174 = CARTESIAN_POINT ( 'NONE',  ( 4.538925740496073362E-14, -1.734723475976807094E-15, 13.00000000000000000 ) ) ;
#175 = APPLICATION_CONTEXT ( 'configuration controlled 3d designs of mechanical parts and assemblies' ) ;
#176 = CARTESIAN_POINT ( 'NONE',  ( -3.123460654010729757E-31, 1.095562519450371143E-32, -8.945946865766886022E-17 ) ) ;
#177 = CC_DESIGN_PERSON_AND_ORGANIZATION_ASSIGNMENT ( #156, #182, ( #118 ) ) ;
#178 = FACE_OUTER_BOUND ( 'NONE', #216, .T. ) ;
#179 = CARTESIAN_POINT ( 'NONE',  ( 0.0000000000000000000, 0.0000000000000000000, 0.0000000000000000000 ) ) ;
#180 = SHAPE_DEFINITION_REPRESENTATION ( #6, #184 ) ;
#181 = FACE_BOUND ( 'NONE', #265, .T. ) ;
#182 = PERSON_AND_ORGANIZATION_ROLE ( 'classification_officer' ) ;
#183 = DIRECTION ( 'NONE',  ( 0.0000000000000000000, 1.000000000000000000, 0.0000000000000000000 ) ) ;
#184 = ADVANCED_BREP_SHAPE_REPRESENTATION ( '200047', ( #283, #188, #162 ), #241 ) ;
#185 = CARTESIAN_POINT ( 'NONE',  ( -9.463679131915806782E-32, 0.5091624327025949803, -2.710505431213761085E-17 ) ) ;
#186 = CONICAL_SURFACE ( 'NONE', #61, 1.200000000000003286, 0.7853981633974453924 ) ;
#187 = DATE_TIME_ROLE ( 'classification_date' ) ;
#188 = MANIFOLD_SOLID_BREP ( 'Corps-Déplacer/Copier1[2]', #92 ) ;
#189 = CIRCLE ( 'NONE', #47, 0.6053844939755816945 ) ;
#190 = AXIS2_PLACEMENT_3D ( 'NONE', #111, #200, #34 ) ;
#191 = EDGE_LOOP ( 'NONE', ( #234 ) ) ;
#192 = UNCERTAINTY_MEASURE_WITH_UNIT (LENGTH_MEASURE( 1.000000000000000082E-05 ), #54, 'distance_accuracy_value', 'NONE');
#193 = DIRECTION ( 'NONE',  ( 0.0000000000000000000, 1.000000000000000000, 0.0000000000000000000 ) ) ;
#194 = ORIENTED_EDGE ( 'NONE', *, *, #141, .T. ) ;
#195 = ADVANCED_FACE ( 'NONE', ( #170, #3 ), #24, .F. ) ;
#196 = FACE_OUTER_BOUND ( 'NONE', #163, .T. ) ;
#197 = DIRECTION ( 'NONE',  ( -3.491481338843133355E-15, 1.224646799147352961E-16, -1.000000000000000000 ) ) ;
#198 = ADVANCED_FACE ( 'NONE', ( #238, #94 ), #27, .T. ) ;
#199 = CARTESIAN_POINT ( 'NONE',  ( 1.326762908760390423E-13, -4.653657836759941152E-15, 38.00000000000000000 ) ) ;
#200 = DIRECTION ( 'NONE',  ( -3.491481338843133355E-15, 1.224646799147352961E-16, -1.000000000000000000 ) ) ;
#201 = CIRCLE ( 'NONE', #32, 0.6534999999999991926 ) ;
#202 = FACE_OUTER_BOUND ( 'NONE', #219, .T. ) ;
#203 = PERSON_AND_ORGANIZATION ( #91, #292 ) ;
#204 = PLANE ( 'NONE',  #190 ) ;
#205 = PERSON_AND_ORGANIZATION ( #91, #292 ) ;
#206 = ADVANCED_FACE ( 'NONE', ( #196, #73 ), #86, .T. ) ;
#207 = FACE_OUTER_BOUND ( 'NONE', #237, .T. ) ;
#208 = APPROVAL_DATE_TIME ( #245, #81 ) ;
#209 = CC_DESIGN_APPROVAL ( #81, ( #278 ) ) ;
#210 = VERTEX_POINT ( 'NONE', #82 ) ;
#211 = DIRECTION ( 'NONE',  ( 0.0000000000000000000, 0.0000000000000000000, 1.000000000000000000 ) ) ;
#212 = EDGE_CURVE ( 'NONE', #101, #101, #201, .T. ) ;
#213 = ORIENTED_EDGE ( 'NONE', *, *, #127, .F. ) ;
#214 = CIRCLE ( 'NONE', #15, 0.5749999999999990674 ) ;
#215 = ORIENTED_EDGE ( 'NONE', *, *, #87, .T. ) ;
#216 = EDGE_LOOP ( 'NONE', ( #215 ) ) ;
#217 = PLANE ( 'NONE',  #67 ) ;
#218 = APPROVAL ( #231, 'UNSPECIFIED' ) ;
#219 = EDGE_LOOP ( 'NONE', ( #70 ) ) ;
#220 = DIRECTION ( 'NONE',  ( 3.491481338843133355E-15, -1.224646799147352961E-16, 1.000000000000000000 ) ) ;
#221 = ORIENTED_EDGE ( 'NONE', *, *, #212, .T. ) ;
#222 = EDGE_LOOP ( 'NONE', ( #261 ) ) ;
#223 = CARTESIAN_POINT ( 'NONE',  ( 6.431627401956046822E-14, -2.255911215531132738E-15, 18.42091301019841865 ) ) ;
#224 = DATE_AND_TIME ( #295, #42 ) ;
#225 = DIRECTION ( 'NONE',  ( 4.275831445896957731E-31, 1.000000000000000000, 1.224646799147352961E-16 ) ) ;
#226 = ADVANCED_FACE ( 'NONE', ( #128, #178 ), #19, .T. ) ;
#227 = CARTESIAN_POINT ( 'NONE',  ( 4.538925740496073362E-14, 0.5749999999999982903, 13.00000000000000000 ) ) ;
#228 = APPROVAL_DATE_TIME ( #224, #218 ) ;
#229 = DIRECTION ( 'NONE',  ( -3.491481338843133355E-15, 1.224646799147352961E-16, -1.000000000000000000 ) ) ;
#230 = FACE_OUTER_BOUND ( 'NONE', #233, .T. ) ;
#231 = APPROVAL_STATUS ( 'not_yet_approved' ) ;
#232 = EDGE_CURVE ( 'NONE', #35, #35, #69, .T. ) ;
#233 = EDGE_LOOP ( 'NONE', ( #137 ) ) ;
#234 = ORIENTED_EDGE ( 'NONE', *, *, #232, .F. ) ;
#235 = ORIENTED_EDGE ( 'NONE', *, *, #33, .T. ) ;
#236 = CC_DESIGN_DATE_AND_TIME_ASSIGNMENT ( #293, #83, ( #282 ) ) ;
#237 = EDGE_LOOP ( 'NONE', ( #25 ) ) ;
#238 = FACE_BOUND ( 'NONE', #259, .T. ) ;
#239 = DIRECTION ( 'NONE',  ( -3.491481338843133355E-15, 1.224646799147352961E-16, -1.000000000000000000 ) ) ;
#240 = DIRECTION ( 'NONE',  ( -3.491481338843133355E-15, 1.224646799147352961E-16, -1.000000000000000000 ) ) ;
#241 =( GEOMETRIC_REPRESENTATION_CONTEXT ( 3 ) GLOBAL_UNCERTAINTY_ASSIGNED_CONTEXT ( ( #192 ) ) GLOBAL_UNIT_ASSIGNED_CONTEXT ( ( #54, #122, #100 ) ) REPRESENTATION_CONTEXT ( 'NONE', 'WORKASPACE' ) );
#242 = CIRCLE ( 'NONE', #253, 0.5091624327025949803 ) ;
#243 = VERTEX_POINT ( 'NONE', #185 ) ;
#244 = DIRECTION ( 'NONE',  ( -3.491481338843133355E-15, 1.224646799147352961E-16, -1.000000000000000000 ) ) ;
#245 = DATE_AND_TIME ( #277, #140 ) ;
#246 = CC_DESIGN_PERSON_AND_ORGANIZATION_ASSIGNMENT ( #274, #299, ( #278 ) ) ;
#247 = FACE_OUTER_BOUND ( 'NONE', #113, .T. ) ;
#248 = APPROVAL_ROLE ( '' ) ;
#249 = AXIS2_PLACEMENT_3D ( 'NONE', #199, #197, #266 ) ;
#250 = CARTESIAN_POINT ( 'NONE',  ( 2.094888803305880013E-14, 0.6534999999999991926, 6.000000000000000000 ) ) ;
#251 = CYLINDRICAL_SURFACE ( 'NONE', #90, 1.500000000000000444 ) ;
#252 = ADVANCED_FACE ( 'NONE', ( #18 ), #204, .F. ) ;
#253 = AXIS2_PLACEMENT_3D ( 'NONE', #176, #148, #285 ) ;
#254 = ORIENTED_EDGE ( 'NONE', *, *, #272, .T. ) ;
#255 = EDGE_LOOP ( 'NONE', ( #115 ) ) ;
#256 = ADVANCED_FACE ( 'NONE', ( #181, #57 ), #303, .T. ) ;
#257 = EDGE_LOOP ( 'NONE', ( #114 ) ) ;
#258 = DESIGN_CONTEXT ( 'detailed design', #51, 'design' ) ;
#259 = EDGE_LOOP ( 'NONE', ( #213 ) ) ;
#260 = CC_DESIGN_PERSON_AND_ORGANIZATION_ASSIGNMENT ( #106, #161, ( #43 ) ) ;
#261 = ORIENTED_EDGE ( 'NONE', *, *, #50, .T. ) ;
#262 = APPROVAL_PERSON_ORGANIZATION ( #12, #81, #88 ) ;
#263 = DIRECTION ( 'NONE',  ( 3.491481338843133355E-15, -1.224646799147352961E-16, 1.000000000000000000 ) ) ;
#264 = AXIS2_PLACEMENT_3D ( 'NONE', #286, #52, #193 ) ;
#265 = EDGE_LOOP ( 'NONE', ( #164 ) ) ;
#266 = DIRECTION ( 'NONE',  ( 0.0000000000000000000, 1.000000000000000000, 0.0000000000000000000 ) ) ;
#267 = DIRECTION ( 'NONE',  ( -3.491481338843133355E-15, 1.224646799147352961E-16, -1.000000000000000000 ) ) ;
#268 = CC_DESIGN_APPROVAL ( #218, ( #282 ) ) ;
#269 = CIRCLE ( 'NONE', #264, 0.6534999999999999698 ) ;
#270 = CARTESIAN_POINT ( 'NONE',  ( 8.728703347107833388E-16, 0.6534999999999991926, 0.2500000000000000000 ) ) ;
#271 = PERSON_AND_ORGANIZATION_ROLE ( 'design_supplier' ) ;
#272 = EDGE_CURVE ( 'NONE', #40, #40, #105, .T. ) ;
#273 = DIRECTION ( 'NONE',  ( 0.0000000000000000000, -1.000000000000000000, 0.0000000000000000000 ) ) ;
#274 = PERSON_AND_ORGANIZATION ( #91, #292 ) ;
#275 = CARTESIAN_POINT ( 'NONE',  ( 2.094888803305880013E-14, 4.900465089847606377E-33, 6.000000000000000000 ) ) ;
#276 = DIRECTION ( 'NONE',  ( 3.491481338843133355E-15, -1.224646799147352961E-16, 1.000000000000000000 ) ) ;
#277 = CALENDAR_DATE ( 2021, 29, 11 ) ;
#278 = PRODUCT_DEFINITION_FORMATION_WITH_SPECIFIED_SOURCE ( 'ANY', '', #43, .NOT_KNOWN. ) ;
#279 = ADVANCED_FACE ( 'NONE', ( #207 ), #55, .T. ) ;
#280 = ORIENTED_EDGE ( 'NONE', *, *, #138, .T. ) ;
#281 = APPROVAL_PERSON_ORGANIZATION ( #60, #93, #248 ) ;
#282 = PRODUCT_DEFINITION ( 'UNKNOWN', '', #278, #258 ) ;
#283 = MANIFOLD_SOLID_BREP ( 'Corps-Déplacer/Copier1[1]', #302 ) ;
#284 = CARTESIAN_POINT ( 'NONE',  ( 4.660183614865709749E-14, -1.634572375883072611E-15, 13.34729635533384773 ) ) ;
#285 = DIRECTION ( 'NONE',  ( 4.275831445896957731E-31, 1.000000000000000000, 1.224646799147352961E-16 ) ) ;
#286 = CARTESIAN_POINT ( 'NONE',  ( 2.094888803305880013E-14, -7.347880794884118750E-16, 6.000000000000000000 ) ) ;
#287 = CIRCLE ( 'NONE', #158, 0.6534999999999999698 ) ;
#288 = CARTESIAN_POINT ( 'NONE',  ( 4.538925740496073362E-14, -1.592040838891558701E-15, 13.00000000000000000 ) ) ;
#289 = CARTESIAN_POINT ( 'NONE',  ( 2.142361074425437273E-14, -7.514391107363931761E-16, 6.135965988394159965 ) ) ;
#290 = ADVANCED_FACE ( 'NONE', ( #104, #202 ), #251, .T. ) ;
#291 = CYLINDRICAL_SURFACE ( 'NONE', #89, 0.6534999999999995257 ) ;
#292 = ORGANIZATION ( 'UNSPECIFIED', 'UNSPECIFIED', '' ) ;
#293 = DATE_AND_TIME ( #126, #38 ) ;
#294 = DIRECTION ( 'NONE',  ( -3.491481338843133355E-15, 1.224646799147352961E-16, -1.000000000000000000 ) ) ;
#295 = CALENDAR_DATE ( 2021, 29, 11 ) ;
#296 = CARTESIAN_POINT ( 'NONE',  ( 1.316288464743861212E-13, 1.499999999999998668, 37.69999999999999574 ) ) ;
#297 = APPROVAL_DATE_TIME ( #39, #93 ) ;
#298 = DIRECTION ( 'NONE',  ( -4.275831445896957731E-31, -1.000000000000000000, -1.224646799147352961E-16 ) ) ;
#299 = PERSON_AND_ORGANIZATION_ROLE ( 'creator' ) ;
#300 = PERSON_AND_ORGANIZATION_ROLE ( 'creator' ) ;
#301 = ADVANCED_FACE ( 'NONE', ( #230, #247 ), #291, .T. ) ;
#302 = CLOSED_SHELL ( 'NONE', ( #116, #206, #226, #195, #256, #290, #21, #252 ) ) ;
#303 = CONICAL_SURFACE ( 'NONE', #173, 1.499999999999997558, 0.1745329251994260644 ) ;
ENDSEC;
END-ISO-10303-21;
