ISO-10303-21;
HEADER;
FILE_DESCRIPTION (( 'STEP AP203' ),
    '1' );
FILE_NAME ('200046.step',
    '2021-11-29T14:58:35',
    ( '' ),
    ( '' ),
    'SwSTEP 2.0',
    'SolidWorks 2019',
    '' );
FILE_SCHEMA (( 'CONFIG_CONTROL_DESIGN' ));
ENDSEC;

DATA;
#1 =( NAMED_UNIT ( * ) PLANE_ANGLE_UNIT ( ) SI_UNIT ( $, .RADIAN. ) );
#2 = AXIS2_PLACEMENT_3D ( 'NONE', #12, #106, #245 ) ;
#3 = APPROVAL_STATUS ( 'not_yet_approved' ) ;
#4 = LOCAL_TIME ( 15, 58, 35.00000000000000000, #144 ) ;
#5 = ADVANCED_FACE ( 'NONE', ( #224, #13 ), #93, .T. ) ;
#6 = PERSON_AND_ORGANIZATION ( #158, #110 ) ;
#7 = CALENDAR_DATE ( 2021, 29, 11 ) ;
#8 = MECHANICAL_CONTEXT ( 'NONE', #168, 'mechanical' ) ;
#9 = AXIS2_PLACEMENT_3D ( 'NONE', #169, #100, #171 ) ;
#10 = PRODUCT_DEFINITION ( 'UNKNOWN', '', #15, #269 ) ;
#11 = DIRECTION ( 'NONE',  ( -3.491481338843133355E-15, 1.224646799147352961E-16, -1.000000000000000000 ) ) ;
#12 = CARTESIAN_POINT ( 'NONE',  ( 4.660183614865709749E-14, -1.634572375883072611E-15, 13.34729635533384773 ) ) ;
#13 = FACE_BOUND ( 'NONE', #81, .T. ) ;
#14 = EDGE_CURVE ( 'NONE', #299, #299, #75, .T. ) ;
#15 = PRODUCT_DEFINITION_FORMATION_WITH_SPECIFIED_SOURCE ( 'ANY', '', #162, .NOT_KNOWN. ) ;
#16 = EDGE_LOOP ( 'NONE', ( #237 ) ) ;
#17 = DIRECTION ( 'NONE',  ( 3.064327676033792352E-31, 1.000000000000000000, 8.625315612454303264E-17 ) ) ;
#18 = DIRECTION ( 'NONE',  ( -3.064327676033792352E-31, -1.000000000000000000, -8.625315612454303264E-17 ) ) ;
#19 = DIRECTION ( 'NONE',  ( -3.491481338843133355E-15, 1.224646799147352961E-16, -1.000000000000000000 ) ) ;
#20 = AXIS2_PLACEMENT_3D ( 'NONE', #61, #218, #105 ) ;
#21 =( GEOMETRIC_REPRESENTATION_CONTEXT ( 3 ) GLOBAL_UNCERTAINTY_ASSIGNED_CONTEXT ( ( #130 ) ) GLOBAL_UNIT_ASSIGNED_CONTEXT ( ( #119, #1, #33 ) ) REPRESENTATION_CONTEXT ( 'NONE', 'WORKASPACE' ) );
#22 = CC_DESIGN_PERSON_AND_ORGANIZATION_ASSIGNMENT ( #80, #255, ( #162 ) ) ;
#23 = CARTESIAN_POINT ( 'NONE',  ( 2.094888803305880013E-14, 4.712995117014874176E-33, 6.000000000000000000 ) ) ;
#24 = DIRECTION ( 'NONE',  ( 0.0000000000000000000, 1.000000000000000000, 0.0000000000000000000 ) ) ;
#25 = PLANE ( 'NONE',  #70 ) ;
#26 = EDGE_CURVE ( 'NONE', #91, #91, #195, .T. ) ;
#27 = CARTESIAN_POINT ( 'NONE',  ( 0.0000000000000000000, 0.0000000000000000000, 0.0000000000000000000 ) ) ;
#28 = APPLICATION_CONTEXT ( 'configuration controlled 3d designs of mechanical parts and assemblies' ) ;
#29 = CALENDAR_DATE ( 2021, 29, 11 ) ;
#30 = DATE_TIME_ROLE ( 'creation_date' ) ;
#31 = AXIS2_PLACEMENT_3D ( 'NONE', #230, #114, #283 ) ;
#32 = APPROVAL_DATE_TIME ( #149, #273 ) ;
#33 =( NAMED_UNIT ( * ) SI_UNIT ( $, .STERADIAN. ) SOLID_ANGLE_UNIT ( ) );
#34 = ORIENTED_EDGE ( 'NONE', *, *, #129, .T. ) ;
#35 = DIRECTION ( 'NONE',  ( 4.275831445896957731E-31, 1.000000000000000000, 1.224646799147352961E-16 ) ) ;
#36 = DIRECTION ( 'NONE',  ( -3.491481338843133355E-15, 1.224646799147352961E-16, -1.000000000000000000 ) ) ;
#37 = EDGE_LOOP ( 'NONE', ( #107 ) ) ;
#38 = CARTESIAN_POINT ( 'NONE',  ( 8.728703347107831416E-16, -3.061616997868381785E-17, 0.2499999999999999445 ) ) ;
#39 = DIRECTION ( 'NONE',  ( -3.491481338843133355E-15, 1.224646799147352961E-16, -1.000000000000000000 ) ) ;
#40 = AXIS2_PLACEMENT_3D ( 'NONE', #216, #11, #244 ) ;
#41 = ORIENTED_EDGE ( 'NONE', *, *, #67, .F. ) ;
#42 = DIRECTION ( 'NONE',  ( -3.491481338843133355E-15, 1.224646799147352961E-16, -1.000000000000000000 ) ) ;
#43 = DIRECTION ( 'NONE',  ( -3.491481338843133355E-15, 1.224646799147352961E-16, -1.000000000000000000 ) ) ;
#44 = ADVANCED_FACE ( 'NONE', ( #87 ), #112, .F. ) ;
#45 = FACE_OUTER_BOUND ( 'NONE', #180, .T. ) ;
#46 = LOCAL_TIME ( 15, 58, 35.00000000000000000, #78 ) ;
#47 = CARTESIAN_POINT ( 'NONE',  ( 1.326762908760390423E-13, 1.199999999999998845, 38.00000000000000000 ) ) ;
#48 = ADVANCED_BREP_SHAPE_REPRESENTATION ( '200046', ( #241, #141, #9 ), #21 ) ;
#49 = CARTESIAN_POINT ( 'NONE',  ( 8.728703347107833388E-16, 0.6284999999999991704, 0.2500000000000000000 ) ) ;
#50 = CARTESIAN_POINT ( 'NONE',  ( 0.0000000000000000000, 0.0000000000000000000, 0.0000000000000000000 ) ) ;
#51 = AXIS2_PLACEMENT_3D ( 'NONE', #279, #43, #68 ) ;
#52 = DATE_AND_TIME ( #122, #4 ) ;
#53 = AXIS2_PLACEMENT_3D ( 'NONE', #202, #173, #264 ) ;
#54 = PERSON_AND_ORGANIZATION ( #158, #110 ) ;
#55 = EDGE_LOOP ( 'NONE', ( #41 ) ) ;
#56 = FACE_OUTER_BOUND ( 'NONE', #268, .T. ) ;
#57 = AXIS2_PLACEMENT_3D ( 'NONE', #38, #219, #18 ) ;
#58 = FACE_BOUND ( 'NONE', #111, .T. ) ;
#59 = CC_DESIGN_PERSON_AND_ORGANIZATION_ASSIGNMENT ( #235, #236, ( #231 ) ) ;
#60 = EDGE_LOOP ( 'NONE', ( #223 ) ) ;
#61 = CARTESIAN_POINT ( 'NONE',  ( 0.0000000000000000000, 0.0000000000000000000, 0.0000000000000000000 ) ) ;
#62 = DIRECTION ( 'NONE',  ( 0.0000000000000000000, -1.000000000000000000, 0.0000000000000000000 ) ) ;
#63 = ORIENTED_EDGE ( 'NONE', *, *, #178, .T. ) ;
#64 = EDGE_LOOP ( 'NONE', ( #217 ) ) ;
#65 = AXIS2_PLACEMENT_3D ( 'NONE', #160, #247, #132 ) ;
#66 = DIRECTION ( 'NONE',  ( -3.491481338843133355E-15, 1.224646799147352961E-16, -1.000000000000000000 ) ) ;
#67 = EDGE_CURVE ( 'NONE', #300, #300, #275, .T. ) ;
#68 = DIRECTION ( 'NONE',  ( 0.0000000000000000000, 1.000000000000000000, 0.0000000000000000000 ) ) ;
#69 = DIRECTION ( 'NONE',  ( 4.275831445896957731E-31, 1.000000000000000000, 1.224646799147353207E-16 ) ) ;
#70 = AXIS2_PLACEMENT_3D ( 'NONE', #23, #165, #163 ) ;
#71 = CC_DESIGN_APPROVAL ( #192, ( #231 ) ) ;
#72 = FACE_OUTER_BOUND ( 'NONE', #16, .T. ) ;
#73 = CARTESIAN_POINT ( 'NONE',  ( 2.094888803305880013E-14, 0.6284999999999991704, 6.000000000000000000 ) ) ;
#74 = DATE_AND_TIME ( #167, #46 ) ;
#75 = CIRCLE ( 'NONE', #170, 0.4841624327025947916 ) ;
#76 = CC_DESIGN_APPROVAL ( #198, ( #15 ) ) ;
#77 = APPROVAL_DATE_TIME ( #52, #198 ) ;
#78 = COORDINATED_UNIVERSAL_TIME_OFFSET ( 1, 0, .AHEAD. ) ;
#79 = ADVANCED_FACE ( 'NONE', ( #58, #222 ), #108, .T. ) ;
#80 = PERSON_AND_ORGANIZATION ( #158, #110 ) ;
#81 = EDGE_LOOP ( 'NONE', ( #133 ) ) ;
#82 = EDGE_LOOP ( 'NONE', ( #152 ) ) ;
#83 = CIRCLE ( 'NONE', #208, 0.4950000000000001066 ) ;
#84 = DIRECTION ( 'NONE',  ( 0.0000000000000000000, 1.000000000000000000, 0.0000000000000000000 ) ) ;
#85 = ADVANCED_FACE ( 'NONE', ( #134, #296 ), #88, .T. ) ;
#86 = DIRECTION ( 'NONE',  ( -3.491481338843133355E-15, 1.224646799147352961E-16, -1.000000000000000000 ) ) ;
#87 = FACE_OUTER_BOUND ( 'NONE', #64, .T. ) ;
#88 = CYLINDRICAL_SURFACE ( 'NONE', #20, 0.6284999999999995035 ) ;
#89 = CC_DESIGN_APPROVAL ( #273, ( #10 ) ) ;
#90 = FACE_OUTER_BOUND ( 'NONE', #295, .T. ) ;
#91 = VERTEX_POINT ( 'NONE', #227 ) ;
#92 = VERTEX_POINT ( 'NONE', #278 ) ;
#93 = CONICAL_SURFACE ( 'NONE', #153, 1.200000000000003286, 0.7853981633974453924 ) ;
#94 = APPROVAL_PERSON_ORGANIZATION ( #258, #198, #234 ) ;
#95 = VERTEX_POINT ( 'NONE', #73 ) ;
#96 = FACE_OUTER_BOUND ( 'NONE', #37, .T. ) ;
#97 = ADVANCED_FACE ( 'NONE', ( #56, #200 ), #190, .F. ) ;
#98 = CIRCLE ( 'NONE', #211, 0.6284999999999991704 ) ;
#99 = APPROVAL_PERSON_ORGANIZATION ( #54, #273, #194 ) ;
#100 = DIRECTION ( 'NONE',  ( 0.0000000000000000000, 0.0000000000000000000, 1.000000000000000000 ) ) ;
#101 = DATE_TIME_ROLE ( 'classification_date' ) ;
#102 = PERSON_AND_ORGANIZATION_ROLE ( 'design_supplier' ) ;
#103 = AXIS2_PLACEMENT_3D ( 'NONE', #254, #186, #185 ) ;
#104 = ORIENTED_EDGE ( 'NONE', *, *, #123, .T. ) ;
#105 = DIRECTION ( 'NONE',  ( 4.275831445896957731E-31, 1.000000000000000000, 1.224646799147352961E-16 ) ) ;
#106 = DIRECTION ( 'NONE',  ( -3.491481338843133355E-15, 1.224646799147352961E-16, -1.000000000000000000 ) ) ;
#107 = ORIENTED_EDGE ( 'NONE', *, *, #248, .F. ) ;
#108 = CONICAL_SURFACE ( 'NONE', #57, 0.6284999999999991704, 0.5235987755982925984 ) ;
#109 = DIRECTION ( 'NONE',  ( 4.275831445896957731E-31, 1.000000000000000000, 1.224646799147352961E-16 ) ) ;
#110 = ORGANIZATION ( 'UNSPECIFIED', 'UNSPECIFIED', '' ) ;
#111 = EDGE_LOOP ( 'NONE', ( #240 ) ) ;
#112 = PLANE ( 'NONE',  #65 ) ;
#113 = ORIENTED_EDGE ( 'NONE', *, *, #233, .F. ) ;
#114 = DIRECTION ( 'NONE',  ( 3.491481338843133355E-15, -1.224646799147352961E-16, 1.000000000000000000 ) ) ;
#115 = CC_DESIGN_PERSON_AND_ORGANIZATION_ASSIGNMENT ( #6, #102, ( #15 ) ) ;
#116 = CARTESIAN_POINT ( 'NONE',  ( 1.326762908760390423E-13, -4.653657836759941152E-15, 38.00000000000000000 ) ) ;
#117 = DIRECTION ( 'NONE',  ( 4.275831445896957731E-31, 1.000000000000000000, 1.224646799147353207E-16 ) ) ;
#118 = DIRECTION ( 'NONE',  ( 0.0000000000000000000, 1.000000000000000000, 0.0000000000000000000 ) ) ;
#119 =( LENGTH_UNIT ( ) NAMED_UNIT ( * ) SI_UNIT ( .MILLI., .METRE. ) );
#120 = ADVANCED_FACE ( 'NONE', ( #242 ), #238, .F. ) ;
#121 = COORDINATED_UNIVERSAL_TIME_OFFSET ( 1, 0, .AHEAD. ) ;
#122 = CALENDAR_DATE ( 2021, 29, 11 ) ;
#123 = EDGE_CURVE ( 'NONE', #92, #92, #83, .T. ) ;
#124 = COORDINATED_UNIVERSAL_TIME_OFFSET ( 1, 0, .AHEAD. ) ;
#125 = SECURITY_CLASSIFICATION_LEVEL ( 'unclassified' ) ;
#126 = ORIENTED_EDGE ( 'NONE', *, *, #26, .T. ) ;
#127 = CARTESIAN_POINT ( 'NONE',  ( -3.962932781054886754E-31, 1.390009704924569532E-32, -1.135029059719380825E-16 ) ) ;
#128 = EDGE_LOOP ( 'NONE', ( #288 ) ) ;
#129 = EDGE_CURVE ( 'NONE', #253, #253, #226, .T. ) ;
#130 = UNCERTAINTY_MEASURE_WITH_UNIT (LENGTH_MEASURE( 1.000000000000000082E-05 ), #119, 'distance_accuracy_value', 'NONE');
#131 = EDGE_LOOP ( 'NONE', ( #34 ) ) ;
#132 = DIRECTION ( 'NONE',  ( -4.275831445896957731E-31, -1.000000000000000000, -1.224646799147352961E-16 ) ) ;
#133 = ORIENTED_EDGE ( 'NONE', *, *, #243, .T. ) ;
#134 = FACE_OUTER_BOUND ( 'NONE', #270, .T. ) ;
#135 = CARTESIAN_POINT ( 'NONE',  ( 1.316288464743861212E-13, 1.499999999999998668, 37.69999999999999574 ) ) ;
#136 = CARTESIAN_POINT ( 'NONE',  ( 2.094888803305880013E-14, -7.347880794884118750E-16, 6.000000000000000000 ) ) ;
#137 = CONICAL_SURFACE ( 'NONE', #175, 1.499999999999997780, 0.1745329251994260367 ) ;
#138 = CIRCLE ( 'NONE', #176, 0.6284999999999999476 ) ;
#139 = ADVANCED_FACE ( 'NONE', ( #197, #292 ), #137, .T. ) ;
#140 = VERTEX_POINT ( 'NONE', #142 ) ;
#141 = MANIFOLD_SOLID_BREP ( 'Corps-Déplacer/Copier1[2]', #297 ) ;
#142 = CARTESIAN_POINT ( 'NONE',  ( 6.590036799080177965E-14, 1.499999999999995559, 18.87461555576785699 ) ) ;
#143 = LOCAL_TIME ( 15, 58, 35.00000000000000000, #124 ) ;
#144 = COORDINATED_UNIVERSAL_TIME_OFFSET ( 1, 0, .AHEAD. ) ;
#145 = APPLICATION_PROTOCOL_DEFINITION ( 'international standard', 'config_control_design', 1994, #28 ) ;
#146 = PRODUCT_RELATED_PRODUCT_CATEGORY ( 'detail', '', ( #162 ) ) ;
#147 = PERSON_AND_ORGANIZATION_ROLE ( 'creator' ) ;
#148 = AXIS2_PLACEMENT_3D ( 'NONE', #27, #277, #117 ) ;
#149 = DATE_AND_TIME ( #7, #143 ) ;
#150 = ORIENTED_EDGE ( 'NONE', *, *, #178, .F. ) ;
#151 = DIRECTION ( 'NONE',  ( -3.491481338843133355E-15, 1.224646799147352961E-16, -1.000000000000000000 ) ) ;
#152 = ORIENTED_EDGE ( 'NONE', *, *, #243, .F. ) ;
#153 = AXIS2_PLACEMENT_3D ( 'NONE', #156, #36, #84 ) ;
#154 = DIRECTION ( 'NONE',  ( -3.491481338843133355E-15, 1.224646799147352961E-16, -1.000000000000000000 ) ) ;
#155 = ORIENTED_EDGE ( 'NONE', *, *, #67, .T. ) ;
#156 = CARTESIAN_POINT ( 'NONE',  ( 1.326762908760390423E-13, -4.653657836759941152E-15, 38.00000000000000000 ) ) ;
#157 = CARTESIAN_POINT ( 'NONE',  ( 8.728703347107831416E-16, -3.061616997868381785E-17, 0.2499999999999999445 ) ) ;
#158 = PERSON ( 'UNSPECIFIED', 'UNSPECIFIED', 'UNSPECIFIED', ('UNSPECIFIED'), ('UNSPECIFIED'), ('UNSPECIFIED') ) ;
#159 = EDGE_LOOP ( 'NONE', ( #113 ) ) ;
#160 = CARTESIAN_POINT ( 'NONE',  ( -1.981466390527443377E-31, 6.950048524622847659E-33, -5.675145298596904125E-17 ) ) ;
#161 = FACE_OUTER_BOUND ( 'NONE', #159, .T. ) ;
#162 = PRODUCT ( '200046', '200046', '', ( #8 ) ) ;
#163 = DIRECTION ( 'NONE',  ( -4.275831445896957731E-31, -1.000000000000000000, -1.224646799147352961E-16 ) ) ;
#164 = CARTESIAN_POINT ( 'NONE',  ( 4.660183614865709749E-14, 0.5253844939755800691, 13.34729635533384773 ) ) ;
#165 = DIRECTION ( 'NONE',  ( 3.491481338843133355E-15, -1.224646799147352961E-16, 1.000000000000000000 ) ) ;
#166 = PERSON_AND_ORGANIZATION ( #158, #110 ) ;
#167 = CALENDAR_DATE ( 2021, 29, 11 ) ;
#168 = APPLICATION_CONTEXT ( 'configuration controlled 3d designs of mechanical parts and assemblies' ) ;
#169 = CARTESIAN_POINT ( 'NONE',  ( 0.0000000000000000000, 0.0000000000000000000, 0.0000000000000000000 ) ) ;
#170 = AXIS2_PLACEMENT_3D ( 'NONE', #127, #42, #182 ) ;
#171 = DIRECTION ( 'NONE',  ( 1.000000000000000000, 0.0000000000000000000, 0.0000000000000000000 ) ) ;
#172 = ORIENTED_EDGE ( 'NONE', *, *, #248, .T. ) ;
#173 = DIRECTION ( 'NONE',  ( -3.491481338843133355E-15, 1.224646799147352961E-16, -1.000000000000000000 ) ) ;
#174 = PRODUCT_DEFINITION_SHAPE ( 'NONE', 'NONE',  #10 ) ;
#175 = AXIS2_PLACEMENT_3D ( 'NONE', #179, #271, #62 ) ;
#176 = AXIS2_PLACEMENT_3D ( 'NONE', #136, #19, #228 ) ;
#177 = DIRECTION ( 'NONE',  ( 0.0000000000000000000, 1.000000000000000000, 0.0000000000000000000 ) ) ;
#178 = EDGE_CURVE ( 'NONE', #302, #302, #98, .T. ) ;
#179 = CARTESIAN_POINT ( 'NONE',  ( 6.590036799080177965E-14, -2.311473752550794145E-15, 18.87461555576785699 ) ) ;
#180 = EDGE_LOOP ( 'NONE', ( #181 ) ) ;
#181 = ORIENTED_EDGE ( 'NONE', *, *, #251, .T. ) ;
#182 = DIRECTION ( 'NONE',  ( 4.275831445896957731E-31, 1.000000000000000000, 1.224646799147353207E-16 ) ) ;
#183 = CARTESIAN_POINT ( 'NONE',  ( -1.892735826383161794E-31, 0.4841624327025947916, -5.421010862427523403E-17 ) ) ;
#184 = ADVANCED_FACE ( 'NONE', ( #72 ), #249, .T. ) ;
#185 = DIRECTION ( 'NONE',  ( 0.0000000000000000000, 1.000000000000000000, 0.0000000000000000000 ) ) ;
#186 = DIRECTION ( 'NONE',  ( -3.491481338843133355E-15, 1.224646799147352961E-16, -1.000000000000000000 ) ) ;
#187 = ADVANCED_FACE ( 'NONE', ( #45 ), #25, .F. ) ;
#188 = CARTESIAN_POINT ( 'NONE',  ( 2.175621901324490136E-14, -7.631054383623674793E-16, 6.231228782810450006 ) ) ;
#189 = APPROVAL_DATE_TIME ( #209, #192 ) ;
#190 = TOROIDAL_SURFACE ( 'NONE', #301, 2.495000000000000107, 2.000000000000000000 ) ;
#191 = APPLICATION_PROTOCOL_DEFINITION ( 'international standard', 'config_control_design', 1994, #168 ) ;
#192 = APPROVAL ( #260, 'UNSPECIFIED' ) ;
#193 = SHAPE_DEFINITION_REPRESENTATION ( #174, #48 ) ;
#194 = APPROVAL_ROLE ( '' ) ;
#195 = CIRCLE ( 'NONE', #40, 0.6284999999999999476 ) ;
#196 = CARTESIAN_POINT ( 'NONE',  ( 4.538925740496073362E-14, -1.734723475976807094E-15, 13.00000000000000000 ) ) ;
#197 = FACE_BOUND ( 'NONE', #128, .T. ) ;
#198 = APPROVAL ( #214, 'UNSPECIFIED' ) ;
#199 = EDGE_LOOP ( 'NONE', ( #63 ) ) ;
#200 = FACE_OUTER_BOUND ( 'NONE', #131, .T. ) ;
#201 = EDGE_LOOP ( 'NONE', ( #104 ) ) ;
#202 = CARTESIAN_POINT ( 'NONE',  ( 1.316288464743861212E-13, -4.616918432785520292E-15, 37.69999999999999574 ) ) ;
#203 = CC_DESIGN_PERSON_AND_ORGANIZATION_ASSIGNMENT ( #213, #262, ( #15 ) ) ;
#204 = FACE_OUTER_BOUND ( 'NONE', #60, .T. ) ;
#205 = DIRECTION ( 'NONE',  ( -3.491481338843133355E-15, 1.224646799147352961E-16, -1.000000000000000000 ) ) ;
#206 = CYLINDRICAL_SURFACE ( 'NONE', #261, 1.500000000000000444 ) ;
#207 = FACE_BOUND ( 'NONE', #272, .T. ) ;
#208 = AXIS2_PLACEMENT_3D ( 'NONE', #291, #154, #177 ) ;
#209 = DATE_AND_TIME ( #29, #293 ) ;
#210 = ADVANCED_FACE ( 'NONE', ( #161, #298 ), #225, .T. ) ;
#211 = AXIS2_PLACEMENT_3D ( 'NONE', #157, #39, #17 ) ;
#212 = APPROVAL_PERSON_ORGANIZATION ( #166, #192, #232 ) ;
#213 = PERSON_AND_ORGANIZATION ( #158, #110 ) ;
#214 = APPROVAL_STATUS ( 'not_yet_approved' ) ;
#215 = COORDINATED_UNIVERSAL_TIME_OFFSET ( 1, 0, .AHEAD. ) ;
#216 = CARTESIAN_POINT ( 'NONE',  ( 2.094888803305880013E-14, -7.347880794884118750E-16, 6.000000000000000000 ) ) ;
#217 = ORIENTED_EDGE ( 'NONE', *, *, #14, .T. ) ;
#218 = DIRECTION ( 'NONE',  ( -3.491481338843133355E-15, 1.224646799147352961E-16, -1.000000000000000000 ) ) ;
#219 = DIRECTION ( 'NONE',  ( 3.491481338843133355E-15, -1.224646799147352961E-16, 1.000000000000000000 ) ) ;
#220 = AXIS2_PLACEMENT_3D ( 'NONE', #188, #205, #118 ) ;
#221 = CONICAL_SURFACE ( 'NONE', #51, 0.4949999999999991074, 0.5235987755982920433 ) ;
#222 = FACE_OUTER_BOUND ( 'NONE', #199, .T. ) ;
#223 = ORIENTED_EDGE ( 'NONE', *, *, #251, .F. ) ;
#224 = FACE_OUTER_BOUND ( 'NONE', #55, .T. ) ;
#225 = CYLINDRICAL_SURFACE ( 'NONE', #148, 0.4949999999999995515 ) ;
#226 = CIRCLE ( 'NONE', #2, 0.5253844939755817345 ) ;
#227 = CARTESIAN_POINT ( 'NONE',  ( 2.094888803305880013E-14, 0.6284999999999991704, 6.000000000000000000 ) ) ;
#228 = DIRECTION ( 'NONE',  ( 0.0000000000000000000, 1.000000000000000000, 0.0000000000000000000 ) ) ;
#229 = VERTEX_POINT ( 'NONE', #250 ) ;
#230 = CARTESIAN_POINT ( 'NONE',  ( 2.094888803305880013E-14, 4.712995117014874176E-33, 6.000000000000000000 ) ) ;
#231 = SECURITY_CLASSIFICATION ( '', '', #125 ) ;
#232 = APPROVAL_ROLE ( '' ) ;
#233 = EDGE_CURVE ( 'NONE', #229, #229, #280, .T. ) ;
#234 = APPROVAL_ROLE ( '' ) ;
#235 = PERSON_AND_ORGANIZATION ( #158, #110 ) ;
#236 = PERSON_AND_ORGANIZATION_ROLE ( 'classification_officer' ) ;
#237 = ORIENTED_EDGE ( 'NONE', *, *, #26, .F. ) ;
#238 = PLANE ( 'NONE',  #239 ) ;
#239 = AXIS2_PLACEMENT_3D ( 'NONE', #294, #86, #35 ) ;
#240 = ORIENTED_EDGE ( 'NONE', *, *, #14, .F. ) ;
#241 = MANIFOLD_SOLID_BREP ( 'Corps-Déplacer/Copier1[1]', #266 ) ;
#242 = FACE_OUTER_BOUND ( 'NONE', #82, .T. ) ;
#243 = EDGE_CURVE ( 'NONE', #252, #252, #286, .T. ) ;
#244 = DIRECTION ( 'NONE',  ( 0.0000000000000000000, 1.000000000000000000, 0.0000000000000000000 ) ) ;
#245 = DIRECTION ( 'NONE',  ( 0.0000000000000000000, 1.000000000000000000, 0.0000000000000000000 ) ) ;
#246 = ORIENTED_EDGE ( 'NONE', *, *, #233, .T. ) ;
#247 = DIRECTION ( 'NONE',  ( 3.491481338843133355E-15, -1.224646799147352961E-16, 1.000000000000000000 ) ) ;
#248 = EDGE_CURVE ( 'NONE', #140, #140, #267, .T. ) ;
#249 = PLANE ( 'NONE',  #31 ) ;
#250 = CARTESIAN_POINT ( 'NONE',  ( 2.175621901324490136E-14, 0.4949999999999983857, 6.231228782810450006 ) ) ;
#251 = EDGE_CURVE ( 'NONE', #95, #95, #138, .T. ) ;
#252 = VERTEX_POINT ( 'NONE', #47 ) ;
#253 = VERTEX_POINT ( 'NONE', #164 ) ;
#254 = CARTESIAN_POINT ( 'NONE',  ( 6.590036799080177965E-14, -2.311473752550794145E-15, 18.87461555576785699 ) ) ;
#255 = PERSON_AND_ORGANIZATION_ROLE ( 'design_owner' ) ;
#256 = CC_DESIGN_SECURITY_CLASSIFICATION ( #231, ( #15 ) ) ;
#257 = CC_DESIGN_DATE_AND_TIME_ASSIGNMENT ( #74, #30, ( #10 ) ) ;
#258 = PERSON_AND_ORGANIZATION ( #158, #110 ) ;
#259 = CC_DESIGN_DATE_AND_TIME_ASSIGNMENT ( #284, #101, ( #231 ) ) ;
#260 = APPROVAL_STATUS ( 'not_yet_approved' ) ;
#261 = AXIS2_PLACEMENT_3D ( 'NONE', #50, #282, #69 ) ;
#262 = PERSON_AND_ORGANIZATION_ROLE ( 'creator' ) ;
#263 = EDGE_LOOP ( 'NONE', ( #172 ) ) ;
#264 = DIRECTION ( 'NONE',  ( 0.0000000000000000000, 1.000000000000000000, 0.0000000000000000000 ) ) ;
#265 = CC_DESIGN_PERSON_AND_ORGANIZATION_ASSIGNMENT ( #285, #147, ( #10 ) ) ;
#266 = CLOSED_SHELL ( 'NONE', ( #187, #290, #210, #97, #139, #303, #5, #120 ) ) ;
#267 = CIRCLE ( 'NONE', #103, 1.499999999999997780 ) ;
#268 = EDGE_LOOP ( 'NONE', ( #289 ) ) ;
#269 = DESIGN_CONTEXT ( 'detailed design', #28, 'design' ) ;
#270 = EDGE_LOOP ( 'NONE', ( #150 ) ) ;
#271 = DIRECTION ( 'NONE',  ( 3.491481338843133355E-15, -1.224646799147352961E-16, 1.000000000000000000 ) ) ;
#272 = EDGE_LOOP ( 'NONE', ( #246 ) ) ;
#273 = APPROVAL ( #3, 'UNSPECIFIED' ) ;
#274 = EDGE_LOOP ( 'NONE', ( #126 ) ) ;
#275 = CIRCLE ( 'NONE', #53, 1.500000000000003331 ) ;
#276 = AXIS2_PLACEMENT_3D ( 'NONE', #116, #66, #24 ) ;
#277 = DIRECTION ( 'NONE',  ( -3.491481338843133355E-15, 1.224646799147352961E-16, -1.000000000000000000 ) ) ;
#278 = CARTESIAN_POINT ( 'NONE',  ( 4.538925740496073362E-14, 0.4949999999999984968, 13.00000000000000000 ) ) ;
#279 = CARTESIAN_POINT ( 'NONE',  ( 2.175621901324490136E-14, -7.631054383623674793E-16, 6.231228782810450006 ) ) ;
#280 = CIRCLE ( 'NONE', #220, 0.4949999999999991074 ) ;
#281 = LOCAL_TIME ( 15, 58, 35.00000000000000000, #215 ) ;
#282 = DIRECTION ( 'NONE',  ( -3.491481338843133355E-15, 1.224646799147352961E-16, -1.000000000000000000 ) ) ;
#283 = DIRECTION ( 'NONE',  ( -4.275831445896957731E-31, -1.000000000000000000, -1.224646799147352961E-16 ) ) ;
#284 = DATE_AND_TIME ( #287, #281 ) ;
#285 = PERSON_AND_ORGANIZATION ( #158, #110 ) ;
#286 = CIRCLE ( 'NONE', #276, 1.200000000000003286 ) ;
#287 = CALENDAR_DATE ( 2021, 29, 11 ) ;
#288 = ORIENTED_EDGE ( 'NONE', *, *, #129, .F. ) ;
#289 = ORIENTED_EDGE ( 'NONE', *, *, #123, .F. ) ;
#290 = ADVANCED_FACE ( 'NONE', ( #204, #207 ), #221, .T. ) ;
#291 = CARTESIAN_POINT ( 'NONE',  ( 4.538925740496073362E-14, -1.592040838891558701E-15, 13.00000000000000000 ) ) ;
#292 = FACE_OUTER_BOUND ( 'NONE', #263, .T. ) ;
#293 = LOCAL_TIME ( 15, 58, 35.00000000000000000, #121 ) ;
#294 = CARTESIAN_POINT ( 'NONE',  ( 1.326762908760390423E-13, 8.998558695971099120E-33, 38.00000000000000000 ) ) ;
#295 = EDGE_LOOP ( 'NONE', ( #155 ) ) ;
#296 = FACE_OUTER_BOUND ( 'NONE', #274, .T. ) ;
#297 = CLOSED_SHELL ( 'NONE', ( #44, #79, #85, #184 ) ) ;
#298 = FACE_OUTER_BOUND ( 'NONE', #201, .T. ) ;
#299 = VERTEX_POINT ( 'NONE', #183 ) ;
#300 = VERTEX_POINT ( 'NONE', #135 ) ;
#301 = AXIS2_PLACEMENT_3D ( 'NONE', #196, #151, #109 ) ;
#302 = VERTEX_POINT ( 'NONE', #49 ) ;
#303 = ADVANCED_FACE ( 'NONE', ( #96, #90 ), #206, .T. ) ;
ENDSEC;
END-ISO-10303-21;
