ISO-10303-21;
HEADER;
FILE_DESCRIPTION (( 'STEP AP203' ),
    '1' );
FILE_NAME ('200045.step',
    '2021-11-29T14:49:29',
    ( '' ),
    ( '' ),
    'SwSTEP 2.0',
    'SolidWorks 2019',
    '' );
FILE_SCHEMA (( 'CONFIG_CONTROL_DESIGN' ));
ENDSEC;

DATA;
#1 = DIRECTION ( 'NONE',  ( -3.491481338843133355E-15, 1.224646799147352961E-16, -1.000000000000000000 ) ) ;
#2 = AXIS2_PLACEMENT_3D ( 'NONE', #127, #58, #146 ) ;
#3 = PRODUCT_DEFINITION ( 'UNKNOWN', '', #59, #262 ) ;
#4 = DIRECTION ( 'NONE',  ( 0.0000000000000000000, 1.000000000000000000, 0.0000000000000000000 ) ) ;
#5 = EDGE_CURVE ( 'NONE', #144, #144, #269, .T. ) ;
#6 = FACE_BOUND ( 'NONE', #85, .T. ) ;
#7 = CYLINDRICAL_SURFACE ( 'NONE', #118, 1.500000000000000444 ) ;
#8 = LOCAL_TIME ( 15, 49, 29.00000000000000000, #93 ) ;
#9 = CONICAL_SURFACE ( 'NONE', #17, 1.200000000000003286, 0.7853981633974453924 ) ;
#10 = AXIS2_PLACEMENT_3D ( 'NONE', #219, #266, #64 ) ;
#11 = FACE_OUTER_BOUND ( 'NONE', #104, .T. ) ;
#12 = ADVANCED_FACE ( 'NONE', ( #33, #137 ), #165, .T. ) ;
#13 = FACE_OUTER_BOUND ( 'NONE', #193, .T. ) ;
#14 = CARTESIAN_POINT ( 'NONE',  ( 1.793212940541123937E-14, -6.289744308216579293E-16, 5.135965988394159965 ) ) ;
#15 = EDGE_LOOP ( 'NONE', ( #281 ) ) ;
#16 = DIRECTION ( 'NONE',  ( -3.491481338843133355E-15, 1.224646799147352961E-16, -1.000000000000000000 ) ) ;
#17 = AXIS2_PLACEMENT_3D ( 'NONE', #143, #217, #4 ) ;
#18 = APPROVAL_STATUS ( 'not_yet_approved' ) ;
#19 = CALENDAR_DATE ( 2021, 29, 11 ) ;
#20 = CIRCLE ( 'NONE', #172, 0.5534999999999999920 ) ;
#21 = PERSON_AND_ORGANIZATION ( #44, #31 ) ;
#22 = CC_DESIGN_PERSON_AND_ORGANIZATION_ASSIGNMENT ( #297, #247, ( #59 ) ) ;
#23 = FACE_OUTER_BOUND ( 'NONE', #141, .T. ) ;
#24 = CALENDAR_DATE ( 2021, 29, 11 ) ;
#25 = FACE_OUTER_BOUND ( 'NONE', #27, .T. ) ;
#26 =( NAMED_UNIT ( * ) SI_UNIT ( $, .STERADIAN. ) SOLID_ANGLE_UNIT ( ) );
#27 = EDGE_LOOP ( 'NONE', ( #160 ) ) ;
#28 = AXIS2_PLACEMENT_3D ( 'NONE', #148, #16, #261 ) ;
#29 = ADVANCED_FACE ( 'NONE', ( #212 ), #218, .T. ) ;
#30 = ADVANCED_BREP_SHAPE_REPRESENTATION ( '200045', ( #256, #158, #195 ), #139 ) ;
#31 = ORGANIZATION ( 'UNSPECIFIED', 'UNSPECIFIED', '' ) ;
#32 = FACE_BOUND ( 'NONE', #15, .T. ) ;
#33 = FACE_OUTER_BOUND ( 'NONE', #167, .T. ) ;
#34 = CARTESIAN_POINT ( 'NONE',  ( 8.728703347107833388E-16, 0.5534999999999993259, 0.2500000000000000000 ) ) ;
#35 = VERTEX_POINT ( 'NONE', #34 ) ;
#36 = VERTEX_POINT ( 'NONE', #81 ) ;
#37 = VERTEX_POINT ( 'NONE', #243 ) ;
#38 = DIRECTION ( 'NONE',  ( 3.491481338843133355E-15, -1.224646799147352961E-16, 1.000000000000000000 ) ) ;
#39 = AXIS2_PLACEMENT_3D ( 'NONE', #187, #277, #74 ) ;
#40 = TOROIDAL_SURFACE ( 'NONE', #10, 2.474999999999999645, 2.000000000000000000 ) ;
#41 = EDGE_LOOP ( 'NONE', ( #128 ) ) ;
#42 = PERSON_AND_ORGANIZATION ( #44, #31 ) ;
#43 = ORIENTED_EDGE ( 'NONE', *, *, #203, .T. ) ;
#44 = PERSON ( 'UNSPECIFIED', 'UNSPECIFIED', 'UNSPECIFIED', ('UNSPECIFIED'), ('UNSPECIFIED'), ('UNSPECIFIED') ) ;
#45 = ORIENTED_EDGE ( 'NONE', *, *, #145, .F. ) ;
#46 = PERSON_AND_ORGANIZATION ( #44, #31 ) ;
#47 = AXIS2_PLACEMENT_3D ( 'NONE', #231, #259, #92 ) ;
#48 = DIRECTION ( 'NONE',  ( -3.491481338843133355E-15, 1.224646799147352961E-16, -1.000000000000000000 ) ) ;
#49 = PERSON_AND_ORGANIZATION ( #44, #31 ) ;
#50 = FACE_OUTER_BOUND ( 'NONE', #166, .T. ) ;
#51 = CC_DESIGN_PERSON_AND_ORGANIZATION_ASSIGNMENT ( #46, #159, ( #63 ) ) ;
#52 = CIRCLE ( 'NONE', #60, 0.5534999999999993259 ) ;
#53 = CIRCLE ( 'NONE', #125, 1.500000000000003331 ) ;
#54 = CARTESIAN_POINT ( 'NONE',  ( 8.728703347107831416E-16, -3.061616997868381785E-17, 0.2499999999999999445 ) ) ;
#55 = ORIENTED_EDGE ( 'NONE', *, *, #5, .T. ) ;
#56 = CARTESIAN_POINT ( 'NONE',  ( 0.0000000000000000000, 0.0000000000000000000, 0.0000000000000000000 ) ) ;
#57 = DIRECTION ( 'NONE',  ( -3.491481338843133355E-15, 1.224646799147352961E-16, -1.000000000000000000 ) ) ;
#58 = DIRECTION ( 'NONE',  ( 3.491481338843133355E-15, -1.224646799147352961E-16, 1.000000000000000000 ) ) ;
#59 = PRODUCT_DEFINITION_FORMATION_WITH_SPECIFIED_SOURCE ( 'ANY', '', #63, .NOT_KNOWN. ) ;
#60 = AXIS2_PLACEMENT_3D ( 'NONE', #119, #96, #162 ) ;
#61 = DIRECTION ( 'NONE',  ( -3.491481338843133355E-15, 1.224646799147352961E-16, -1.000000000000000000 ) ) ;
#62 = FACE_OUTER_BOUND ( 'NONE', #117, .T. ) ;
#63 = PRODUCT ( '200045', '200045', '', ( #135 ) ) ;
#64 = DIRECTION ( 'NONE',  ( 4.275831445896958607E-31, 1.000000000000000000, 1.224646799147352961E-16 ) ) ;
#65 = PERSON_AND_ORGANIZATION_ROLE ( 'creator' ) ;
#66 = CIRCLE ( 'NONE', #101, 0.5534999999999999920 ) ;
#67 = ORIENTED_EDGE ( 'NONE', *, *, #260, .T. ) ;
#68 = ADVANCED_FACE ( 'NONE', ( #25, #191 ), #122, .T. ) ;
#69 = DATE_AND_TIME ( #19, #302 ) ;
#70 = DATE_AND_TIME ( #276, #289 ) ;
#71 = DIRECTION ( 'NONE',  ( 0.0000000000000000000, 1.000000000000000000, 0.0000000000000000000 ) ) ;
#72 = APPROVAL_PERSON_ORGANIZATION ( #21, #98, #113 ) ;
#73 =( NAMED_UNIT ( * ) PLANE_ANGLE_UNIT ( ) SI_UNIT ( $, .RADIAN. ) );
#74 = DIRECTION ( 'NONE',  ( 4.275831445896957731E-31, 1.000000000000000000, 1.224646799147352961E-16 ) ) ;
#75 = PLANE ( 'NONE',  #39 ) ;
#76 = EDGE_LOOP ( 'NONE', ( #230 ) ) ;
#77 = FACE_OUTER_BOUND ( 'NONE', #41, .T. ) ;
#78 = CIRCLE ( 'NONE', #284, 1.200000000000003286 ) ;
#79 = PLANE ( 'NONE',  #168 ) ;
#80 = ADVANCED_FACE ( 'NONE', ( #283, #6 ), #9, .T. ) ;
#81 = CARTESIAN_POINT ( 'NONE',  ( 1.745740669421566678E-14, 0.5534999999999993259, 5.000000000000000000 ) ) ;
#82 = CARTESIAN_POINT ( 'NONE',  ( 1.745740669421566678E-14, -6.123233995736765296E-16, 5.000000000000000000 ) ) ;
#83 = ADVANCED_FACE ( 'NONE', ( #23, #209 ), #138, .T. ) ;
#84 = FACE_OUTER_BOUND ( 'NONE', #295, .T. ) ;
#85 = EDGE_LOOP ( 'NONE', ( #67 ) ) ;
#86 = DIRECTION ( 'NONE',  ( -3.491481338843133355E-15, 1.224646799147352961E-16, -1.000000000000000000 ) ) ;
#87 = AXIS2_PLACEMENT_3D ( 'NONE', #299, #48, #90 ) ;
#88 = CIRCLE ( 'NONE', #255, 0.4749999999999992006 ) ;
#89 = DATE_TIME_ROLE ( 'classification_date' ) ;
#90 = DIRECTION ( 'NONE',  ( 4.275831445896957731E-31, 1.000000000000000000, 1.224646799147352961E-16 ) ) ;
#91 = DIRECTION ( 'NONE',  ( 1.000000000000000000, 0.0000000000000000000, 0.0000000000000000000 ) ) ;
#92 = DIRECTION ( 'NONE',  ( -4.275831445896957731E-31, -1.000000000000000000, -1.224646799147352961E-16 ) ) ;
#93 = COORDINATED_UNIVERSAL_TIME_OFFSET ( 1, 0, .AHEAD. ) ;
#94 = CC_DESIGN_APPROVAL ( #220, ( #296 ) ) ;
#95 = DIRECTION ( 'NONE',  ( -3.491481338843133355E-15, 1.224646799147352961E-16, -1.000000000000000000 ) ) ;
#96 = DIRECTION ( 'NONE',  ( -3.491481338843133355E-15, 1.224646799147352961E-16, -1.000000000000000000 ) ) ;
#97 = CARTESIAN_POINT ( 'NONE',  ( 4.311035480981395782E-14, -1.512107695968337265E-15, 12.34729635533384595 ) ) ;
#98 = APPROVAL ( #18, 'UNSPECIFIED' ) ;
#99 = CARTESIAN_POINT ( 'NONE',  ( 1.316288464743861212E-13, -4.616918432785520292E-15, 37.69999999999999574 ) ) ;
#100 = CLOSED_SHELL ( 'NONE', ( #242, #12, #83, #189, #234, #192, #80, #152 ) ) ;
#101 = AXIS2_PLACEMENT_3D ( 'NONE', #82, #196, #173 ) ;
#102 = CARTESIAN_POINT ( 'NONE',  ( 4.189777606611760026E-14, -1.469576158976823750E-15, 12.00000000000000000 ) ) ;
#103 = PLANE ( 'NONE',  #214 ) ;
#104 = EDGE_LOOP ( 'NONE', ( #55 ) ) ;
#105 = CC_DESIGN_DATE_AND_TIME_ASSIGNMENT ( #274, #151, ( #3 ) ) ;
#106 = LOCAL_TIME ( 15, 49, 29.00000000000000000, #184 ) ;
#107 = FACE_BOUND ( 'NONE', #270, .T. ) ;
#108 = ORIENTED_EDGE ( 'NONE', *, *, #208, .T. ) ;
#109 = CARTESIAN_POINT ( 'NONE',  ( 1.745740669421566678E-14, -6.123233995736765296E-16, 5.000000000000000000 ) ) ;
#110 = EDGE_LOOP ( 'NONE', ( #290 ) ) ;
#111 = COORDINATED_UNIVERSAL_TIME_OFFSET ( 1, 0, .AHEAD. ) ;
#112 = SECURITY_CLASSIFICATION_LEVEL ( 'unclassified' ) ;
#113 = APPROVAL_ROLE ( '' ) ;
#114 = DIRECTION ( 'NONE',  ( -3.491481338843133355E-15, 1.224646799147352961E-16, -1.000000000000000000 ) ) ;
#115 =( LENGTH_UNIT ( ) NAMED_UNIT ( * ) SI_UNIT ( .MILLI., .METRE. ) );
#116 = CARTESIAN_POINT ( 'NONE',  ( 0.0000000000000000000, 0.0000000000000000000, 0.0000000000000000000 ) ) ;
#117 = EDGE_LOOP ( 'NONE', ( #180 ) ) ;
#118 = AXIS2_PLACEMENT_3D ( 'NONE', #264, #246, #285 ) ;
#119 = CARTESIAN_POINT ( 'NONE',  ( 8.728703347107831416E-16, -3.061616997868381785E-17, 0.2499999999999999445 ) ) ;
#120 = AXIS2_PLACEMENT_3D ( 'NONE', #97, #1, #194 ) ;
#121 = DATE_AND_TIME ( #24, #106 ) ;
#122 = CYLINDRICAL_SURFACE ( 'NONE', #239, 0.5534999999999996589 ) ;
#123 = CARTESIAN_POINT ( 'NONE',  ( 1.316288464743861212E-13, 1.499999999999998668, 37.69999999999999574 ) ) ;
#124 = VERTEX_POINT ( 'NONE', #291 ) ;
#125 = AXIS2_PLACEMENT_3D ( 'NONE', #99, #175, #169 ) ;
#126 = VERTEX_POINT ( 'NONE', #200 ) ;
#127 = CARTESIAN_POINT ( 'NONE',  ( 6.280491014476897100E-14, -2.202899706890974152E-15, 17.98804119216021391 ) ) ;
#128 = ORIENTED_EDGE ( 'NONE', *, *, #260, .F. ) ;
#129 = APPROVAL_PERSON_ORGANIZATION ( #49, #142, #303 ) ;
#130 = DIRECTION ( 'NONE',  ( 0.0000000000000000000, 1.000000000000000000, 0.0000000000000000000 ) ) ;
#131 = AXIS2_PLACEMENT_3D ( 'NONE', #102, #199, #227 ) ;
#132 = APPLICATION_PROTOCOL_DEFINITION ( 'international standard', 'config_control_design', 1994, #211 ) ;
#133 = CC_DESIGN_PERSON_AND_ORGANIZATION_ASSIGNMENT ( #42, #136, ( #59 ) ) ;
#134 = PERSON_AND_ORGANIZATION ( #44, #31 ) ;
#135 = MECHANICAL_CONTEXT ( 'NONE', #156, 'mechanical' ) ;
#136 = PERSON_AND_ORGANIZATION_ROLE ( 'design_supplier' ) ;
#137 = FACE_BOUND ( 'NONE', #110, .T. ) ;
#138 = CYLINDRICAL_SURFACE ( 'NONE', #147, 0.4749999999999995337 ) ;
#139 =( GEOMETRIC_REPRESENTATION_CONTEXT ( 3 ) GLOBAL_UNCERTAINTY_ASSIGNED_CONTEXT ( ( #198 ) ) GLOBAL_UNIT_ASSIGNED_CONTEXT ( ( #115, #73, #26 ) ) REPRESENTATION_CONTEXT ( 'NONE', 'WORKASPACE' ) );
#140 = DIRECTION ( 'NONE',  ( -3.479548228341893631E-31, -1.000000000000000000, -9.794057565361388553E-17 ) ) ;
#141 = EDGE_LOOP ( 'NONE', ( #249 ) ) ;
#142 = APPROVAL ( #268, 'UNSPECIFIED' ) ;
#143 = CARTESIAN_POINT ( 'NONE',  ( 1.326762908760390423E-13, -4.653657836759941152E-15, 38.00000000000000000 ) ) ;
#144 = VERTEX_POINT ( 'NONE', #292 ) ;
#145 = EDGE_CURVE ( 'NONE', #37, #37, #279, .T. ) ;
#146 = DIRECTION ( 'NONE',  ( 0.0000000000000000000, -1.000000000000000000, 0.0000000000000000000 ) ) ;
#147 = AXIS2_PLACEMENT_3D ( 'NONE', #116, #233, #210 ) ;
#148 = CARTESIAN_POINT ( 'NONE',  ( 6.280491014476897100E-14, -2.202899706890974152E-15, 17.98804119216021391 ) ) ;
#149 = ORIENTED_EDGE ( 'NONE', *, *, #203, .F. ) ;
#150 = CARTESIAN_POINT ( 'NONE',  ( 1.745740669421566678E-14, 4.150585198516678942E-33, 5.000000000000000000 ) ) ;
#151 = DATE_TIME_ROLE ( 'creation_date' ) ;
#152 = ADVANCED_FACE ( 'NONE', ( #77 ), #75, .F. ) ;
#153 = CONICAL_SURFACE ( 'NONE', #181, 0.5534999999999993259, 0.5235987755982924874 ) ;
#154 = CALENDAR_DATE ( 2021, 29, 11 ) ;
#155 = ORIENTED_EDGE ( 'NONE', *, *, #294, .T. ) ;
#156 = APPLICATION_CONTEXT ( 'configuration controlled 3d designs of mechanical parts and assemblies' ) ;
#157 = APPROVAL_ROLE ( '' ) ;
#158 = MANIFOLD_SOLID_BREP ( 'Corps-Déplacer/Copier1[2]', #235 ) ;
#159 = PERSON_AND_ORGANIZATION_ROLE ( 'design_owner' ) ;
#160 = ORIENTED_EDGE ( 'NONE', *, *, #163, .F. ) ;
#161 = PERSON_AND_ORGANIZATION ( #44, #31 ) ;
#162 = DIRECTION ( 'NONE',  ( 3.479548228341893631E-31, 1.000000000000000000, 9.794057565361388553E-17 ) ) ;
#163 = EDGE_CURVE ( 'NONE', #35, #35, #52, .T. ) ;
#164 = SHAPE_DEFINITION_REPRESENTATION ( #265, #30 ) ;
#165 = CONICAL_SURFACE ( 'NONE', #174, 0.4749999999999992006, 0.5235987755982932645 ) ;
#166 = EDGE_LOOP ( 'NONE', ( #205 ) ) ;
#167 = EDGE_LOOP ( 'NONE', ( #273 ) ) ;
#168 = AXIS2_PLACEMENT_3D ( 'NONE', #150, #38, #171 ) ;
#169 = DIRECTION ( 'NONE',  ( 0.0000000000000000000, 1.000000000000000000, 0.0000000000000000000 ) ) ;
#170 = ADVANCED_FACE ( 'NONE', ( #32, #50 ), #153, .T. ) ;
#171 = DIRECTION ( 'NONE',  ( -4.275831445896957731E-31, -1.000000000000000000, -1.224646799147352961E-16 ) ) ;
#172 = AXIS2_PLACEMENT_3D ( 'NONE', #109, #57, #204 ) ;
#173 = DIRECTION ( 'NONE',  ( 0.0000000000000000000, 1.000000000000000000, 0.0000000000000000000 ) ) ;
#174 = AXIS2_PLACEMENT_3D ( 'NONE', #185, #95, #71 ) ;
#175 = DIRECTION ( 'NONE',  ( -3.491481338843133355E-15, 1.224646799147352961E-16, -1.000000000000000000 ) ) ;
#176 = CARTESIAN_POINT ( 'NONE',  ( -1.821122711306307145E-31, 6.387638606124651056E-33, -5.215902748916646457E-17 ) ) ;
#177 = CC_DESIGN_PERSON_AND_ORGANIZATION_ASSIGNMENT ( #161, #65, ( #3 ) ) ;
#178 = APPROVAL_PERSON_ORGANIZATION ( #207, #220, #157 ) ;
#179 = COORDINATED_UNIVERSAL_TIME_OFFSET ( 1, 0, .AHEAD. ) ;
#180 = ORIENTED_EDGE ( 'NONE', *, *, #282, .F. ) ;
#181 = AXIS2_PLACEMENT_3D ( 'NONE', #54, #253, #140 ) ;
#182 = DIRECTION ( 'NONE',  ( 0.0000000000000000000, 0.0000000000000000000, 1.000000000000000000 ) ) ;
#183 = ORIENTED_EDGE ( 'NONE', *, *, #216, .T. ) ;
#184 = COORDINATED_UNIVERSAL_TIME_OFFSET ( 1, 0, .AHEAD. ) ;
#185 = CARTESIAN_POINT ( 'NONE',  ( 1.793212940541123937E-14, -6.289744308216579293E-16, 5.135965988394159965 ) ) ;
#186 = LOCAL_TIME ( 15, 49, 29.00000000000000000, #179 ) ;
#187 = CARTESIAN_POINT ( 'NONE',  ( 1.326762908760390423E-13, 8.998558695971099120E-33, 38.00000000000000000 ) ) ;
#188 = APPROVAL_DATE_TIME ( #250, #142 ) ;
#189 = ADVANCED_FACE ( 'NONE', ( #237, #258 ), #40, .F. ) ;
#190 = CC_DESIGN_SECURITY_CLASSIFICATION ( #296, ( #59 ) ) ;
#191 = FACE_OUTER_BOUND ( 'NONE', #275, .T. ) ;
#192 = ADVANCED_FACE ( 'NONE', ( #62, #223 ), #7, .T. ) ;
#193 = EDGE_LOOP ( 'NONE', ( #155 ) ) ;
#194 = DIRECTION ( 'NONE',  ( 0.0000000000000000000, 1.000000000000000000, 0.0000000000000000000 ) ) ;
#195 = AXIS2_PLACEMENT_3D ( 'NONE', #248, #182, #91 ) ;
#196 = DIRECTION ( 'NONE',  ( -3.491481338843133355E-15, 1.224646799147352961E-16, -1.000000000000000000 ) ) ;
#197 = CONICAL_SURFACE ( 'NONE', #2, 1.499999999999997558, 0.1745329251994261199 ) ;
#198 = UNCERTAINTY_MEASURE_WITH_UNIT (LENGTH_MEASURE( 1.000000000000000082E-05 ), #115, 'distance_accuracy_value', 'NONE');
#199 = DIRECTION ( 'NONE',  ( -3.491481338843133355E-15, 1.224646799147352961E-16, -1.000000000000000000 ) ) ;
#200 = CARTESIAN_POINT ( 'NONE',  ( 6.280491014476897100E-14, 1.499999999999995559, 17.98804119216021391 ) ) ;
#201 = ORIENTED_EDGE ( 'NONE', *, *, #145, .T. ) ;
#202 = DIRECTION ( 'NONE',  ( 3.491481338843133355E-15, -1.224646799147352961E-16, 1.000000000000000000 ) ) ;
#203 = EDGE_CURVE ( 'NONE', #224, #224, #53, .T. ) ;
#204 = DIRECTION ( 'NONE',  ( 0.0000000000000000000, 1.000000000000000000, 0.0000000000000000000 ) ) ;
#205 = ORIENTED_EDGE ( 'NONE', *, *, #163, .T. ) ;
#206 = EDGE_LOOP ( 'NONE', ( #149 ) ) ;
#207 = PERSON_AND_ORGANIZATION ( #44, #31 ) ;
#208 = EDGE_CURVE ( 'NONE', #124, #124, #222, .T. ) ;
#209 = FACE_OUTER_BOUND ( 'NONE', #240, .T. ) ;
#210 = DIRECTION ( 'NONE',  ( 4.275831445896956855E-31, 1.000000000000000000, 1.224646799147352961E-16 ) ) ;
#211 = APPLICATION_CONTEXT ( 'configuration controlled 3d designs of mechanical parts and assemblies' ) ;
#212 = FACE_OUTER_BOUND ( 'NONE', #76, .T. ) ;
#213 = EDGE_CURVE ( 'NONE', #221, #221, #88, .T. ) ;
#214 = AXIS2_PLACEMENT_3D ( 'NONE', #176, #202, #245 ) ;
#215 = APPROVAL_DATE_TIME ( #121, #220 ) ;
#216 = EDGE_CURVE ( 'NONE', #36, #36, #66, .T. ) ;
#217 = DIRECTION ( 'NONE',  ( -3.491481338843133355E-15, 1.224646799147352961E-16, -1.000000000000000000 ) ) ;
#218 = PLANE ( 'NONE',  #47 ) ;
#219 = CARTESIAN_POINT ( 'NONE',  ( 4.189777606611760026E-14, -1.301042606982605321E-15, 12.00000000000000000 ) ) ;
#220 = APPROVAL ( #272, 'UNSPECIFIED' ) ;
#221 = VERTEX_POINT ( 'NONE', #286 ) ;
#222 = CIRCLE ( 'NONE', #131, 0.4749999999999998668 ) ;
#223 = FACE_OUTER_BOUND ( 'NONE', #301, .T. ) ;
#224 = VERTEX_POINT ( 'NONE', #123 ) ;
#225 = EDGE_LOOP ( 'NONE', ( #201 ) ) ;
#226 = CC_DESIGN_APPROVAL ( #142, ( #59 ) ) ;
#227 = DIRECTION ( 'NONE',  ( 0.0000000000000000000, 1.000000000000000000, 0.0000000000000000000 ) ) ;
#228 = APPLICATION_PROTOCOL_DEFINITION ( 'international standard', 'config_control_design', 1994, #156 ) ;
#229 = PERSON_AND_ORGANIZATION_ROLE ( 'classification_officer' ) ;
#230 = ORIENTED_EDGE ( 'NONE', *, *, #216, .F. ) ;
#231 = CARTESIAN_POINT ( 'NONE',  ( 1.745740669421566678E-14, 4.150585198516678942E-33, 5.000000000000000000 ) ) ;
#232 = CARTESIAN_POINT ( 'NONE',  ( 1.745740669421566678E-14, 0.5534999999999993259, 5.000000000000000000 ) ) ;
#233 = DIRECTION ( 'NONE',  ( -3.491481338843133355E-15, 1.224646799147352961E-16, -1.000000000000000000 ) ) ;
#234 = ADVANCED_FACE ( 'NONE', ( #107, #84 ), #197, .T. ) ;
#235 = CLOSED_SHELL ( 'NONE', ( #254, #170, #68, #29 ) ) ;
#236 = CIRCLE ( 'NONE', #28, 1.499999999999997558 ) ;
#237 = FACE_OUTER_BOUND ( 'NONE', #257, .T. ) ;
#238 = CC_DESIGN_APPROVAL ( #98, ( #3 ) ) ;
#239 = AXIS2_PLACEMENT_3D ( 'NONE', #56, #114, #280 ) ;
#240 = EDGE_LOOP ( 'NONE', ( #108 ) ) ;
#241 = CARTESIAN_POINT ( 'NONE',  ( 1.326762908760390423E-13, -4.653657836759941152E-15, 38.00000000000000000 ) ) ;
#242 = ADVANCED_FACE ( 'NONE', ( #13 ), #79, .F. ) ;
#243 = CARTESIAN_POINT ( 'NONE',  ( 4.311035480981395782E-14, 0.5053844939755793852, 12.34729635533384595 ) ) ;
#244 = CARTESIAN_POINT ( 'NONE',  ( 1.326762908760390423E-13, 1.199999999999998845, 38.00000000000000000 ) ) ;
#245 = DIRECTION ( 'NONE',  ( -4.275831445896957731E-31, -1.000000000000000000, -1.224646799147352961E-16 ) ) ;
#246 = DIRECTION ( 'NONE',  ( -3.491481338843133355E-15, 1.224646799147352961E-16, -1.000000000000000000 ) ) ;
#247 = PERSON_AND_ORGANIZATION_ROLE ( 'creator' ) ;
#248 = CARTESIAN_POINT ( 'NONE',  ( 0.0000000000000000000, 0.0000000000000000000, 0.0000000000000000000 ) ) ;
#249 = ORIENTED_EDGE ( 'NONE', *, *, #213, .F. ) ;
#250 = DATE_AND_TIME ( #154, #8 ) ;
#251 = ORIENTED_EDGE ( 'NONE', *, *, #208, .F. ) ;
#252 = CALENDAR_DATE ( 2021, 29, 11 ) ;
#253 = DIRECTION ( 'NONE',  ( 3.491481338843133355E-15, -1.224646799147352961E-16, 1.000000000000000000 ) ) ;
#254 = ADVANCED_FACE ( 'NONE', ( #11 ), #103, .F. ) ;
#255 = AXIS2_PLACEMENT_3D ( 'NONE', #14, #86, #267 ) ;
#256 = MANIFOLD_SOLID_BREP ( 'Corps-Déplacer/Copier1[1]', #100 ) ;
#257 = EDGE_LOOP ( 'NONE', ( #251 ) ) ;
#258 = FACE_OUTER_BOUND ( 'NONE', #225, .T. ) ;
#259 = DIRECTION ( 'NONE',  ( 3.491481338843133355E-15, -1.224646799147352961E-16, 1.000000000000000000 ) ) ;
#260 = EDGE_CURVE ( 'NONE', #263, #263, #78, .T. ) ;
#261 = DIRECTION ( 'NONE',  ( 0.0000000000000000000, 1.000000000000000000, 0.0000000000000000000 ) ) ;
#262 = DESIGN_CONTEXT ( 'detailed design', #211, 'design' ) ;
#263 = VERTEX_POINT ( 'NONE', #244 ) ;
#264 = CARTESIAN_POINT ( 'NONE',  ( 0.0000000000000000000, 0.0000000000000000000, 0.0000000000000000000 ) ) ;
#265 = PRODUCT_DEFINITION_SHAPE ( 'NONE', 'NONE',  #3 ) ;
#266 = DIRECTION ( 'NONE',  ( -3.491481338843133355E-15, 1.224646799147352961E-16, -1.000000000000000000 ) ) ;
#267 = DIRECTION ( 'NONE',  ( 0.0000000000000000000, 1.000000000000000000, 0.0000000000000000000 ) ) ;
#268 = APPROVAL_STATUS ( 'not_yet_approved' ) ;
#269 = CIRCLE ( 'NONE', #87, 0.4091624327025949470 ) ;
#270 = EDGE_LOOP ( 'NONE', ( #45 ) ) ;
#271 = CC_DESIGN_PERSON_AND_ORGANIZATION_ASSIGNMENT ( #134, #229, ( #296 ) ) ;
#272 = APPROVAL_STATUS ( 'not_yet_approved' ) ;
#273 = ORIENTED_EDGE ( 'NONE', *, *, #294, .F. ) ;
#274 = DATE_AND_TIME ( #252, #186 ) ;
#275 = EDGE_LOOP ( 'NONE', ( #183 ) ) ;
#276 = CALENDAR_DATE ( 2021, 29, 11 ) ;
#277 = DIRECTION ( 'NONE',  ( -3.491481338843133355E-15, 1.224646799147352961E-16, -1.000000000000000000 ) ) ;
#278 = PRODUCT_RELATED_PRODUCT_CATEGORY ( 'detail', '', ( #63 ) ) ;
#279 = CIRCLE ( 'NONE', #120, 0.5053844939755809396 ) ;
#280 = DIRECTION ( 'NONE',  ( 4.275831445896957731E-31, 1.000000000000000000, 1.224646799147352961E-16 ) ) ;
#281 = ORIENTED_EDGE ( 'NONE', *, *, #5, .F. ) ;
#282 = EDGE_CURVE ( 'NONE', #126, #126, #236, .T. ) ;
#283 = FACE_OUTER_BOUND ( 'NONE', #206, .T. ) ;
#284 = AXIS2_PLACEMENT_3D ( 'NONE', #241, #61, #130 ) ;
#285 = DIRECTION ( 'NONE',  ( 4.275831445896957731E-31, 1.000000000000000000, 1.224646799147353207E-16 ) ) ;
#286 = CARTESIAN_POINT ( 'NONE',  ( 1.793212940541123937E-14, 0.4749999999999985345, 5.135965988394159965 ) ) ;
#287 = CC_DESIGN_DATE_AND_TIME_ASSIGNMENT ( #69, #89, ( #296 ) ) ;
#288 = VERTEX_POINT ( 'NONE', #232 ) ;
#289 = LOCAL_TIME ( 15, 49, 29.00000000000000000, #111 ) ;
#290 = ORIENTED_EDGE ( 'NONE', *, *, #213, .T. ) ;
#291 = CARTESIAN_POINT ( 'NONE',  ( 4.189777606611760026E-14, 0.4749999999999984235, 12.00000000000000000 ) ) ;
#292 = CARTESIAN_POINT ( 'NONE',  ( -1.892735826383161137E-31, 0.4091624327025949470, -5.421010862427521554E-17 ) ) ;
#293 = ORIENTED_EDGE ( 'NONE', *, *, #282, .T. ) ;
#294 = EDGE_CURVE ( 'NONE', #288, #288, #20, .T. ) ;
#295 = EDGE_LOOP ( 'NONE', ( #293 ) ) ;
#296 = SECURITY_CLASSIFICATION ( '', '', #112 ) ;
#297 = PERSON_AND_ORGANIZATION ( #44, #31 ) ;
#298 = COORDINATED_UNIVERSAL_TIME_OFFSET ( 1, 0, .AHEAD. ) ;
#299 = CARTESIAN_POINT ( 'NONE',  ( -3.642245422612614289E-31, 1.277527721224930211E-32, -1.043180549783329291E-16 ) ) ;
#300 = APPROVAL_DATE_TIME ( #70, #98 ) ;
#301 = EDGE_LOOP ( 'NONE', ( #43 ) ) ;
#302 = LOCAL_TIME ( 15, 49, 29.00000000000000000, #298 ) ;
#303 = APPROVAL_ROLE ( '' ) ;
ENDSEC;
END-ISO-10303-21;
