ISO-10303-21;
HEADER;
FILE_DESCRIPTION (( 'STEP AP203' ),
    '1' );
FILE_NAME ('200044.step',
    '2021-11-29T14:49:29',
    ( '' ),
    ( '' ),
    'SwSTEP 2.0',
    'SolidWorks 2019',
    '' );
FILE_SCHEMA (( 'CONFIG_CONTROL_DESIGN' ));
ENDSEC;

DATA;
#1 = COORDINATED_UNIVERSAL_TIME_OFFSET ( 1, 0, .AHEAD. ) ;
#2 = EDGE_LOOP ( 'NONE', ( #254 ) ) ;
#3 = EDGE_LOOP ( 'NONE', ( #184 ) ) ;
#4 = CONICAL_SURFACE ( 'NONE', #65, 1.499999999999997558, 0.1745329251994260644 ) ;
#5 = EDGE_LOOP ( 'NONE', ( #27 ) ) ;
#6 = CIRCLE ( 'NONE', #41, 1.200000000000003286 ) ;
#7 = APPROVAL_ROLE ( '' ) ;
#8 = DIRECTION ( 'NONE',  ( 3.491481338843133355E-15, -1.224646799147352961E-16, 1.000000000000000000 ) ) ;
#9 = PERSON_AND_ORGANIZATION_ROLE ( 'design_owner' ) ;
#10 = FACE_BOUND ( 'NONE', #157, .T. ) ;
#11 = APPROVAL_DATE_TIME ( #15, #88 ) ;
#12 = DIRECTION ( 'NONE',  ( 0.0000000000000000000, 1.000000000000000000, 0.0000000000000000000 ) ) ;
#13 = ORIENTED_EDGE ( 'NONE', *, *, #249, .T. ) ;
#14 = DIRECTION ( 'NONE',  ( 0.0000000000000000000, -1.000000000000000000, 0.0000000000000000000 ) ) ;
#15 = DATE_AND_TIME ( #66, #19 ) ;
#16 = VERTEX_POINT ( 'NONE', #244 ) ;
#17 = CIRCLE ( 'NONE', #303, 0.4899999999999991029 ) ;
#18 = CIRCLE ( 'NONE', #299, 0.6034999999999994813 ) ;
#19 = LOCAL_TIME ( 15, 49, 29.00000000000000000, #279 ) ;
#20 = VERTEX_POINT ( 'NONE', #47 ) ;
#21 = FACE_OUTER_BOUND ( 'NONE', #67, .T. ) ;
#22 = DIRECTION ( 'NONE',  ( 0.0000000000000000000, 1.000000000000000000, 0.0000000000000000000 ) ) ;
#23 = EDGE_CURVE ( 'NONE', #143, #143, #123, .T. ) ;
#24 = PERSON_AND_ORGANIZATION_ROLE ( 'creator' ) ;
#25 = APPROVAL_DATE_TIME ( #72, #286 ) ;
#26 = EDGE_LOOP ( 'NONE', ( #93 ) ) ;
#27 = ORIENTED_EDGE ( 'NONE', *, *, #97, .T. ) ;
#28 = EDGE_CURVE ( 'NONE', #84, #84, #108, .T. ) ;
#29 = COORDINATED_UNIVERSAL_TIME_OFFSET ( 1, 0, .AHEAD. ) ;
#30 = EDGE_LOOP ( 'NONE', ( #13 ) ) ;
#31 = APPROVAL_PERSON_ORGANIZATION ( #206, #286, #227 ) ;
#32 = CALENDAR_DATE ( 2021, 29, 11 ) ;
#33 = FACE_OUTER_BOUND ( 'NONE', #242, .T. ) ;
#34 = DIRECTION ( 'NONE',  ( -3.491481338843133355E-15, 1.224646799147352961E-16, -1.000000000000000000 ) ) ;
#35 = EDGE_LOOP ( 'NONE', ( #71 ) ) ;
#36 = SECURITY_CLASSIFICATION ( '', '', #109 ) ;
#37 = ORIENTED_EDGE ( 'NONE', *, *, #240, .F. ) ;
#38 = DIRECTION ( 'NONE',  ( 0.0000000000000000000, 1.000000000000000000, 0.0000000000000000000 ) ) ;
#39 = CARTESIAN_POINT ( 'NONE',  ( 8.728703347107833388E-16, 0.6034999999999994813, 0.2500000000000000000 ) ) ;
#40 = AXIS2_PLACEMENT_3D ( 'NONE', #216, #121, #141 ) ;
#41 = AXIS2_PLACEMENT_3D ( 'NONE', #196, #172, #38 ) ;
#42 = CARTESIAN_POINT ( 'NONE',  ( 1.316288464743861212E-13, -4.616918432785520292E-15, 37.69999999999999574 ) ) ;
#43 = CARTESIAN_POINT ( 'NONE',  ( 1.814378921295066468E-14, -6.363984574927324500E-16, 5.196587766659072294 ) ) ;
#44 = ADVANCED_FACE ( 'NONE', ( #261, #291 ), #52, .T. ) ;
#45 = CARTESIAN_POINT ( 'NONE',  ( 1.745740669421566678E-14, 0.6034999999999994813, 5.000000000000000000 ) ) ;
#46 = AXIS2_PLACEMENT_3D ( 'NONE', #42, #298, #250 ) ;
#47 = CARTESIAN_POINT ( 'NONE',  ( 1.316288464743861212E-13, 1.499999999999998668, 37.69999999999999574 ) ) ;
#48 = CIRCLE ( 'NONE', #294, 0.4900000000000002132 ) ;
#49 = MECHANICAL_CONTEXT ( 'NONE', #144, 'mechanical' ) ;
#50 = EDGE_LOOP ( 'NONE', ( #100 ) ) ;
#51 = APPROVAL_STATUS ( 'not_yet_approved' ) ;
#52 = CYLINDRICAL_SURFACE ( 'NONE', #229, 1.500000000000000444 ) ;
#53 = PERSON_AND_ORGANIZATION ( #61, #98 ) ;
#54 = FACE_OUTER_BOUND ( 'NONE', #89, .T. ) ;
#55 = CC_DESIGN_PERSON_AND_ORGANIZATION_ASSIGNMENT ( #204, #85, ( #36 ) ) ;
#56 = DIRECTION ( 'NONE',  ( -4.275831445896957731E-31, -1.000000000000000000, -1.224646799147352961E-16 ) ) ;
#57 = MANIFOLD_SOLID_BREP ( 'Corps-Déplacer/Copier1[2]', #164 ) ;
#58 = CARTESIAN_POINT ( 'NONE',  ( 4.189777606611760026E-14, 0.4899999999999986589, 12.00000000000000000 ) ) ;
#59 = VERTEX_POINT ( 'NONE', #45 ) ;
#60 = CARTESIAN_POINT ( 'NONE',  ( 8.728703347107831416E-16, -3.061616997868381785E-17, 0.2499999999999999445 ) ) ;
#61 = PERSON ( 'UNSPECIFIED', 'UNSPECIFIED', 'UNSPECIFIED', ('UNSPECIFIED'), ('UNSPECIFIED'), ('UNSPECIFIED') ) ;
#62 = DIRECTION ( 'NONE',  ( 3.491481338843133355E-15, -1.224646799147352961E-16, 1.000000000000000000 ) ) ;
#63 = CARTESIAN_POINT ( 'NONE',  ( 1.745740669421566678E-14, 0.6034999999999994813, 5.000000000000000000 ) ) ;
#64 = DATE_TIME_ROLE ( 'classification_date' ) ;
#65 = AXIS2_PLACEMENT_3D ( 'NONE', #115, #214, #14 ) ;
#66 = CALENDAR_DATE ( 2021, 29, 11 ) ;
#67 = EDGE_LOOP ( 'NONE', ( #111 ) ) ;
#68 = EDGE_CURVE ( 'NONE', #293, #293, #17, .T. ) ;
#69 = ADVANCED_FACE ( 'NONE', ( #33, #266 ), #119, .T. ) ;
#70 = CARTESIAN_POINT ( 'NONE',  ( 1.745740669421566678E-14, -6.123233995736765296E-16, 5.000000000000000000 ) ) ;
#71 = ORIENTED_EDGE ( 'NONE', *, *, #263, .F. ) ;
#72 = DATE_AND_TIME ( #32, #300 ) ;
#73 = CARTESIAN_POINT ( 'NONE',  ( 4.189777606611760026E-14, -1.301042606982605321E-15, 12.00000000000000000 ) ) ;
#74 = SHAPE_DEFINITION_REPRESENTATION ( #239, #80 ) ;
#75 = DIRECTION ( 'NONE',  ( -3.491481338843133355E-15, 1.224646799147352961E-16, -1.000000000000000000 ) ) ;
#76 = CARTESIAN_POINT ( 'NONE',  ( 1.745740669421566678E-14, 4.525525144182144028E-33, 5.000000000000000000 ) ) ;
#77 = DIRECTION ( 'NONE',  ( 0.0000000000000000000, 1.000000000000000000, 0.0000000000000000000 ) ) ;
#78 = AXIS2_PLACEMENT_3D ( 'NONE', #73, #75, #168 ) ;
#79 = CARTESIAN_POINT ( 'NONE',  ( 1.326762908760390423E-13, -4.653657836759941152E-15, 38.00000000000000000 ) ) ;
#80 = ADVANCED_BREP_SHAPE_REPRESENTATION ( '200044', ( #151, #57, #230 ), #158 ) ;
#81 = DIRECTION ( 'NONE',  ( 0.0000000000000000000, 1.000000000000000000, 0.0000000000000000000 ) ) ;
#82 = CARTESIAN_POINT ( 'NONE',  ( 0.0000000000000000000, 0.0000000000000000000, 0.0000000000000000000 ) ) ;
#83 = CC_DESIGN_APPROVAL ( #183, ( #267 ) ) ;
#84 = VERTEX_POINT ( 'NONE', #275 ) ;
#85 = PERSON_AND_ORGANIZATION_ROLE ( 'classification_officer' ) ;
#86 = DIRECTION ( 'NONE',  ( 0.0000000000000000000, 0.0000000000000000000, 1.000000000000000000 ) ) ;
#87 = ORIENTED_EDGE ( 'NONE', *, *, #243, .T. ) ;
#88 = APPROVAL ( #226, 'UNSPECIFIED' ) ;
#89 = EDGE_LOOP ( 'NONE', ( #282 ) ) ;
#90 = ORIENTED_EDGE ( 'NONE', *, *, #243, .F. ) ;
#91 = DATE_TIME_ROLE ( 'creation_date' ) ;
#92 = AXIS2_PLACEMENT_3D ( 'NONE', #150, #62, #102 ) ;
#93 = ORIENTED_EDGE ( 'NONE', *, *, #23, .T. ) ;
#94 = DIRECTION ( 'NONE',  ( -4.275831445896957731E-31, -1.000000000000000000, -1.224646799147352961E-16 ) ) ;
#95 = APPROVAL_DATE_TIME ( #262, #183 ) ;
#96 = FACE_OUTER_BOUND ( 'NONE', #155, .T. ) ;
#97 = EDGE_CURVE ( 'NONE', #171, #171, #182, .T. ) ;
#98 = ORGANIZATION ( 'UNSPECIFIED', 'UNSPECIFIED', '' ) ;
#99 = EDGE_LOOP ( 'NONE', ( #87 ) ) ;
#100 = ORIENTED_EDGE ( 'NONE', *, *, #263, .T. ) ;
#101 = DIRECTION ( 'NONE',  ( 0.0000000000000000000, 1.000000000000000000, 0.0000000000000000000 ) ) ;
#102 = DIRECTION ( 'NONE',  ( -4.275831445896957731E-31, -1.000000000000000000, -1.224646799147352961E-16 ) ) ;
#103 = TOROIDAL_SURFACE ( 'NONE', #78, 2.489999999999999769, 2.000000000000000000 ) ;
#104 = DIRECTION ( 'NONE',  ( -3.491481338843133355E-15, 1.224646799147352961E-16, -1.000000000000000000 ) ) ;
#105 = FACE_BOUND ( 'NONE', #277, .T. ) ;
#106 = ADVANCED_FACE ( 'NONE', ( #10, #134 ), #4, .T. ) ;
#107 = DIRECTION ( 'NONE',  ( -3.191267513483409466E-31, -1.000000000000000000, -8.982619490352157619E-17 ) ) ;
#108 = CIRCLE ( 'NONE', #40, 0.4591624327025950469 ) ;
#109 = SECURITY_CLASSIFICATION_LEVEL ( 'unclassified' ) ;
#110 = CC_DESIGN_PERSON_AND_ORGANIZATION_ASSIGNMENT ( #53, #139, ( #258 ) ) ;
#111 = ORIENTED_EDGE ( 'NONE', *, *, #113, .F. ) ;
#112 = PERSON_AND_ORGANIZATION ( #61, #98 ) ;
#113 = EDGE_CURVE ( 'NONE', #59, #59, #131, .T. ) ;
#114 = CC_DESIGN_APPROVAL ( #88, ( #36 ) ) ;
#115 = CARTESIAN_POINT ( 'NONE',  ( 6.250789252516124325E-14, -2.192481731199788180E-15, 17.90297196486594800 ) ) ;
#116 = FACE_OUTER_BOUND ( 'NONE', #292, .T. ) ;
#117 = EDGE_LOOP ( 'NONE', ( #228 ) ) ;
#118 = AXIS2_PLACEMENT_3D ( 'NONE', #173, #221, #77 ) ;
#119 = CYLINDRICAL_SURFACE ( 'NONE', #271, 0.6034999999999998144 ) ;
#120 = ADVANCED_FACE ( 'NONE', ( #54 ), #211, .F. ) ;
#121 = DIRECTION ( 'NONE',  ( -3.491481338843133355E-15, 1.224646799147352961E-16, -1.000000000000000000 ) ) ;
#122 = DIRECTION ( 'NONE',  ( -3.491481338843133355E-15, 1.224646799147352961E-16, -1.000000000000000000 ) ) ;
#123 = CIRCLE ( 'NONE', #289, 1.499999999999997558 ) ;
#124 = VERTEX_POINT ( 'NONE', #220 ) ;
#125 = CYLINDRICAL_SURFACE ( 'NONE', #251, 0.4899999999999996581 ) ;
#126 = DESIGN_CONTEXT ( 'detailed design', #174, 'design' ) ;
#127 = PLANE ( 'NONE',  #92 ) ;
#128 = DIRECTION ( 'NONE',  ( 4.275831445896957731E-31, 1.000000000000000000, 1.224646799147352961E-16 ) ) ;
#129 = CALENDAR_DATE ( 2021, 29, 11 ) ;
#130 = PERSON_AND_ORGANIZATION_ROLE ( 'creator' ) ;
#131 = CIRCLE ( 'NONE', #180, 0.6035000000000000364 ) ;
#132 = PRODUCT ( '200044', '200044', '', ( #49 ) ) ;
#133 = PERSON_AND_ORGANIZATION ( #61, #98 ) ;
#134 = FACE_OUTER_BOUND ( 'NONE', #26, .T. ) ;
#135 = PERSON_AND_ORGANIZATION ( #61, #98 ) ;
#136 = AXIS2_PLACEMENT_3D ( 'NONE', #76, #234, #56 ) ;
#137 = CC_DESIGN_PERSON_AND_ORGANIZATION_ASSIGNMENT ( #165, #24, ( #258 ) ) ;
#138 = DIRECTION ( 'NONE',  ( -3.491481338843133355E-15, 1.224646799147352961E-16, -1.000000000000000000 ) ) ;
#139 = PERSON_AND_ORGANIZATION_ROLE ( 'design_supplier' ) ;
#140 = CARTESIAN_POINT ( 'NONE',  ( 1.814378921295066468E-14, -6.363984574927324500E-16, 5.196587766659072294 ) ) ;
#141 = DIRECTION ( 'NONE',  ( 4.275831445896957731E-31, 1.000000000000000000, 1.224646799147352961E-16 ) ) ;
#142 = DIRECTION ( 'NONE',  ( 0.0000000000000000000, 1.000000000000000000, 0.0000000000000000000 ) ) ;
#143 = VERTEX_POINT ( 'NONE', #269 ) ;
#144 = APPLICATION_CONTEXT ( 'configuration controlled 3d designs of mechanical parts and assemblies' ) ;
#145 = VERTEX_POINT ( 'NONE', #39 ) ;
#146 = FACE_BOUND ( 'NONE', #30, .T. ) ;
#147 = ADVANCED_FACE ( 'NONE', ( #96 ), #186, .T. ) ;
#148 = CIRCLE ( 'NONE', #46, 1.500000000000003331 ) ;
#149 = CARTESIAN_POINT ( 'NONE',  ( 8.728703347107831416E-16, -3.061616997868381785E-17, 0.2499999999999999445 ) ) ;
#150 = CARTESIAN_POINT ( 'NONE',  ( -1.928018497453731373E-31, 6.762578551790115458E-33, -5.522064448703485313E-17 ) ) ;
#151 = MANIFOLD_SOLID_BREP ( 'Corps-Déplacer/Copier1[1]', #175 ) ;
#152 = APPLICATION_PROTOCOL_DEFINITION ( 'international standard', 'config_control_design', 1994, #144 ) ;
#153 = ORIENTED_EDGE ( 'NONE', *, *, #249, .F. ) ;
#154 =( LENGTH_UNIT ( ) NAMED_UNIT ( * ) SI_UNIT ( .MILLI., .METRE. ) );
#155 = EDGE_LOOP ( 'NONE', ( #207 ) ) ;
#156 = CC_DESIGN_PERSON_AND_ORGANIZATION_ASSIGNMENT ( #135, #130, ( #267 ) ) ;
#157 = EDGE_LOOP ( 'NONE', ( #37 ) ) ;
#158 =( GEOMETRIC_REPRESENTATION_CONTEXT ( 3 ) GLOBAL_UNCERTAINTY_ASSIGNED_CONTEXT ( ( #247 ) ) GLOBAL_UNIT_ASSIGNED_CONTEXT ( ( #154, #212, #162 ) ) REPRESENTATION_CONTEXT ( 'NONE', 'WORKASPACE' ) );
#159 = APPLICATION_PROTOCOL_DEFINITION ( 'international standard', 'config_control_design', 1994, #174 ) ;
#160 = CARTESIAN_POINT ( 'NONE',  ( 1.745740669421566678E-14, 4.525525144182144028E-33, 5.000000000000000000 ) ) ;
#161 = ADVANCED_FACE ( 'NONE', ( #285, #116 ), #103, .F. ) ;
#162 =( NAMED_UNIT ( * ) SI_UNIT ( $, .STERADIAN. ) SOLID_ANGLE_UNIT ( ) );
#163 = EDGE_LOOP ( 'NONE', ( #181 ) ) ;
#164 = CLOSED_SHELL ( 'NONE', ( #197, #259, #69, #147 ) ) ;
#165 = PERSON_AND_ORGANIZATION ( #61, #98 ) ;
#166 = APPROVAL_PERSON_ORGANIZATION ( #252, #88, #205 ) ;
#167 = CARTESIAN_POINT ( 'NONE',  ( 0.0000000000000000000, 0.0000000000000000000, 0.0000000000000000000 ) ) ;
#168 = DIRECTION ( 'NONE',  ( 4.275831445896957731E-31, 1.000000000000000000, 1.224646799147352961E-16 ) ) ;
#169 = DIRECTION ( 'NONE',  ( 4.275831445896957731E-31, 1.000000000000000000, 1.224646799147352714E-16 ) ) ;
#170 = CONICAL_SURFACE ( 'NONE', #219, 0.6034999999999994813, 0.5235987755982925984 ) ;
#171 = VERTEX_POINT ( 'NONE', #63 ) ;
#172 = DIRECTION ( 'NONE',  ( -3.491481338843133355E-15, 1.224646799147352961E-16, -1.000000000000000000 ) ) ;
#173 = CARTESIAN_POINT ( 'NONE',  ( 4.311035480981396413E-14, -1.512107695968337463E-15, 12.34729635533384773 ) ) ;
#174 = APPLICATION_CONTEXT ( 'configuration controlled 3d designs of mechanical parts and assemblies' ) ;
#175 = CLOSED_SHELL ( 'NONE', ( #120, #255, #208, #161, #106, #44, #232, #274 ) ) ;
#176 = CARTESIAN_POINT ( 'NONE',  ( 4.189777606611760026E-14, -1.469576158976823750E-15, 12.00000000000000000 ) ) ;
#177 = FACE_OUTER_BOUND ( 'NONE', #163, .T. ) ;
#178 = DATE_AND_TIME ( #276, #203 ) ;
#179 = COORDINATED_UNIVERSAL_TIME_OFFSET ( 1, 0, .AHEAD. ) ;
#180 = AXIS2_PLACEMENT_3D ( 'NONE', #70, #34, #12 ) ;
#181 = ORIENTED_EDGE ( 'NONE', *, *, #222, .T. ) ;
#182 = CIRCLE ( 'NONE', #201, 0.6035000000000000364 ) ;
#183 = APPROVAL ( #51, 'UNSPECIFIED' ) ;
#184 = ORIENTED_EDGE ( 'NONE', *, *, #68, .T. ) ;
#185 = CARTESIAN_POINT ( 'NONE',  ( 0.0000000000000000000, 0.0000000000000000000, 0.0000000000000000000 ) ) ;
#186 = PLANE ( 'NONE',  #224 ) ;
#187 = DIRECTION ( 'NONE',  ( 1.000000000000000000, 0.0000000000000000000, 0.0000000000000000000 ) ) ;
#188 = CARTESIAN_POINT ( 'NONE',  ( 1.745740669421566678E-14, -6.123233995736765296E-16, 5.000000000000000000 ) ) ;
#189 = COORDINATED_UNIVERSAL_TIME_OFFSET ( 1, 0, .AHEAD. ) ;
#190 = FACE_OUTER_BOUND ( 'NONE', #117, .T. ) ;
#191 = AXIS2_PLACEMENT_3D ( 'NONE', #202, #246, #296 ) ;
#192 = EDGE_LOOP ( 'NONE', ( #153 ) ) ;
#193 = DIRECTION ( 'NONE',  ( 0.0000000000000000000, 1.000000000000000000, 0.0000000000000000000 ) ) ;
#194 = FACE_OUTER_BOUND ( 'NONE', #192, .T. ) ;
#195 = CC_DESIGN_APPROVAL ( #286, ( #258 ) ) ;
#196 = CARTESIAN_POINT ( 'NONE',  ( 1.326762908760390423E-13, -4.653657836759941152E-15, 38.00000000000000000 ) ) ;
#197 = ADVANCED_FACE ( 'NONE', ( #190 ), #127, .F. ) ;
#198 = DIRECTION ( 'NONE',  ( 3.491481338843133355E-15, -1.224646799147352961E-16, 1.000000000000000000 ) ) ;
#199 = DIRECTION ( 'NONE',  ( -3.491481338843133355E-15, 1.224646799147352961E-16, -1.000000000000000000 ) ) ;
#200 = PRODUCT_RELATED_PRODUCT_CATEGORY ( 'detail', '', ( #132 ) ) ;
#201 = AXIS2_PLACEMENT_3D ( 'NONE', #188, #260, #193 ) ;
#202 = CARTESIAN_POINT ( 'NONE',  ( 1.326762908760390423E-13, 8.998558695971099120E-33, 38.00000000000000000 ) ) ;
#203 = LOCAL_TIME ( 15, 49, 29.00000000000000000, #179 ) ;
#204 = PERSON_AND_ORGANIZATION ( #61, #98 ) ;
#205 = APPROVAL_ROLE ( '' ) ;
#206 = PERSON_AND_ORGANIZATION ( #61, #98 ) ;
#207 = ORIENTED_EDGE ( 'NONE', *, *, #97, .F. ) ;
#208 = ADVANCED_FACE ( 'NONE', ( #273, #177 ), #125, .T. ) ;
#209 = ORIENTED_EDGE ( 'NONE', *, *, #240, .T. ) ;
#210 = CC_DESIGN_DATE_AND_TIME_ASSIGNMENT ( #178, #64, ( #36 ) ) ;
#211 = PLANE ( 'NONE',  #136 ) ;
#212 =( NAMED_UNIT ( * ) PLANE_ANGLE_UNIT ( ) SI_UNIT ( $, .RADIAN. ) );
#213 = DIRECTION ( 'NONE',  ( 4.275831445896957731E-31, 1.000000000000000000, 1.224646799147353207E-16 ) ) ;
#214 = DIRECTION ( 'NONE',  ( 3.491481338843133355E-15, -1.224646799147352961E-16, 1.000000000000000000 ) ) ;
#215 = CC_DESIGN_PERSON_AND_ORGANIZATION_ASSIGNMENT ( #112, #9, ( #132 ) ) ;
#216 = CARTESIAN_POINT ( 'NONE',  ( -3.856036994907462745E-31, 1.352515710358023092E-32, -1.104412889740697063E-16 ) ) ;
#217 = CARTESIAN_POINT ( 'NONE',  ( 0.0000000000000000000, 0.0000000000000000000, 0.0000000000000000000 ) ) ;
#218 = FACE_OUTER_BOUND ( 'NONE', #99, .T. ) ;
#219 = AXIS2_PLACEMENT_3D ( 'NONE', #60, #198, #107 ) ;
#220 = CARTESIAN_POINT ( 'NONE',  ( 1.326762908760390423E-13, 1.199999999999998845, 38.00000000000000000 ) ) ;
#221 = DIRECTION ( 'NONE',  ( -3.491481338843133355E-15, 1.224646799147352961E-16, -1.000000000000000000 ) ) ;
#222 = EDGE_CURVE ( 'NONE', #268, #268, #48, .T. ) ;
#223 = DIRECTION ( 'NONE',  ( -3.491481338843133355E-15, 1.224646799147352961E-16, -1.000000000000000000 ) ) ;
#224 = AXIS2_PLACEMENT_3D ( 'NONE', #160, #8, #94 ) ;
#225 = DIRECTION ( 'NONE',  ( 3.191267513483409466E-31, 1.000000000000000000, 8.982619490352157619E-17 ) ) ;
#226 = APPROVAL_STATUS ( 'not_yet_approved' ) ;
#227 = APPROVAL_ROLE ( '' ) ;
#228 = ORIENTED_EDGE ( 'NONE', *, *, #28, .T. ) ;
#229 = AXIS2_PLACEMENT_3D ( 'NONE', #167, #138, #213 ) ;
#230 = AXIS2_PLACEMENT_3D ( 'NONE', #185, #86, #187 ) ;
#231 = EDGE_LOOP ( 'NONE', ( #284 ) ) ;
#232 = ADVANCED_FACE ( 'NONE', ( #245, #146 ), #256, .T. ) ;
#233 = APPROVAL_STATUS ( 'not_yet_approved' ) ;
#234 = DIRECTION ( 'NONE',  ( 3.491481338843133355E-15, -1.224646799147352961E-16, 1.000000000000000000 ) ) ;
#235 = CIRCLE ( 'NONE', #118, 0.5203844939755811749 ) ;
#236 = CALENDAR_DATE ( 2021, 29, 11 ) ;
#237 = DIRECTION ( 'NONE',  ( 0.0000000000000000000, 1.000000000000000000, 0.0000000000000000000 ) ) ;
#238 = DIRECTION ( 'NONE',  ( -3.491481338843133355E-15, 1.224646799147352961E-16, -1.000000000000000000 ) ) ;
#239 = PRODUCT_DEFINITION_SHAPE ( 'NONE', 'NONE',  #267 ) ;
#240 = EDGE_CURVE ( 'NONE', #16, #16, #235, .T. ) ;
#241 = DIRECTION ( 'NONE',  ( -3.491481338843133355E-15, 1.224646799147352961E-16, -1.000000000000000000 ) ) ;
#242 = EDGE_LOOP ( 'NONE', ( #90 ) ) ;
#243 = EDGE_CURVE ( 'NONE', #145, #145, #18, .T. ) ;
#244 = CARTESIAN_POINT ( 'NONE',  ( 4.311035480981396413E-14, 0.5203844939755796206, 12.34729635533384773 ) ) ;
#245 = FACE_OUTER_BOUND ( 'NONE', #35, .T. ) ;
#246 = DIRECTION ( 'NONE',  ( -3.491481338843133355E-15, 1.224646799147352961E-16, -1.000000000000000000 ) ) ;
#247 = UNCERTAINTY_MEASURE_WITH_UNIT (LENGTH_MEASURE( 1.000000000000000082E-05 ), #154, 'distance_accuracy_value', 'NONE');
#248 = FACE_BOUND ( 'NONE', #3, .T. ) ;
#249 = EDGE_CURVE ( 'NONE', #124, #124, #6, .T. ) ;
#250 = DIRECTION ( 'NONE',  ( 0.0000000000000000000, 1.000000000000000000, 0.0000000000000000000 ) ) ;
#251 = AXIS2_PLACEMENT_3D ( 'NONE', #82, #223, #128 ) ;
#252 = PERSON_AND_ORGANIZATION ( #61, #98 ) ;
#253 = LOCAL_TIME ( 15, 49, 29.00000000000000000, #1 ) ;
#254 = ORIENTED_EDGE ( 'NONE', *, *, #23, .F. ) ;
#255 = ADVANCED_FACE ( 'NONE', ( #21, #248 ), #280, .T. ) ;
#256 = CONICAL_SURFACE ( 'NONE', #278, 1.200000000000003286, 0.7853981633974453924 ) ;
#257 = ORIENTED_EDGE ( 'NONE', *, *, #28, .F. ) ;
#258 = PRODUCT_DEFINITION_FORMATION_WITH_SPECIFIED_SOURCE ( 'ANY', '', #132, .NOT_KNOWN. ) ;
#259 = ADVANCED_FACE ( 'NONE', ( #105, #218 ), #170, .T. ) ;
#260 = DIRECTION ( 'NONE',  ( -3.491481338843133355E-15, 1.224646799147352961E-16, -1.000000000000000000 ) ) ;
#261 = FACE_OUTER_BOUND ( 'NONE', #2, .T. ) ;
#262 = DATE_AND_TIME ( #129, #253 ) ;
#263 = EDGE_CURVE ( 'NONE', #20, #20, #148, .T. ) ;
#264 = EDGE_LOOP ( 'NONE', ( #281 ) ) ;
#265 = CARTESIAN_POINT ( 'NONE',  ( 6.250789252516124325E-14, -2.192481731199788180E-15, 17.90297196486594800 ) ) ;
#266 = FACE_OUTER_BOUND ( 'NONE', #5, .T. ) ;
#267 = PRODUCT_DEFINITION ( 'UNKNOWN', '', #258, #126 ) ;
#268 = VERTEX_POINT ( 'NONE', #58 ) ;
#269 = CARTESIAN_POINT ( 'NONE',  ( 6.250789252516124325E-14, 1.499999999999995559, 17.90297196486594800 ) ) ;
#270 = PLANE ( 'NONE',  #191 ) ;
#271 = AXIS2_PLACEMENT_3D ( 'NONE', #217, #238, #169 ) ;
#272 = APPROVAL_PERSON_ORGANIZATION ( #133, #183, #7 ) ;
#273 = FACE_OUTER_BOUND ( 'NONE', #231, .T. ) ;
#274 = ADVANCED_FACE ( 'NONE', ( #194 ), #270, .F. ) ;
#275 = CARTESIAN_POINT ( 'NONE',  ( -1.892735826383160919E-31, 0.4591624327025950469, -5.421010862427522170E-17 ) ) ;
#276 = CALENDAR_DATE ( 2021, 29, 11 ) ;
#277 = EDGE_LOOP ( 'NONE', ( #257 ) ) ;
#278 = AXIS2_PLACEMENT_3D ( 'NONE', #79, #301, #101 ) ;
#279 = COORDINATED_UNIVERSAL_TIME_OFFSET ( 1, 0, .AHEAD. ) ;
#280 = CONICAL_SURFACE ( 'NONE', #290, 0.4899999999999991029, 0.5235987755982929315 ) ;
#281 = ORIENTED_EDGE ( 'NONE', *, *, #222, .F. ) ;
#282 = ORIENTED_EDGE ( 'NONE', *, *, #113, .T. ) ;
#283 = CC_DESIGN_SECURITY_CLASSIFICATION ( #36, ( #258 ) ) ;
#284 = ORIENTED_EDGE ( 'NONE', *, *, #68, .F. ) ;
#285 = FACE_OUTER_BOUND ( 'NONE', #264, .T. ) ;
#286 = APPROVAL ( #233, 'UNSPECIFIED' ) ;
#287 = DATE_AND_TIME ( #236, #295 ) ;
#288 = DIRECTION ( 'NONE',  ( -3.491481338843133355E-15, 1.224646799147352961E-16, -1.000000000000000000 ) ) ;
#289 = AXIS2_PLACEMENT_3D ( 'NONE', #265, #241, #142 ) ;
#290 = AXIS2_PLACEMENT_3D ( 'NONE', #43, #104, #22 ) ;
#291 = FACE_OUTER_BOUND ( 'NONE', #50, .T. ) ;
#292 = EDGE_LOOP ( 'NONE', ( #209 ) ) ;
#293 = VERTEX_POINT ( 'NONE', #297 ) ;
#294 = AXIS2_PLACEMENT_3D ( 'NONE', #176, #199, #81 ) ;
#295 = LOCAL_TIME ( 15, 49, 29.00000000000000000, #189 ) ;
#296 = DIRECTION ( 'NONE',  ( 4.275831445896957731E-31, 1.000000000000000000, 1.224646799147352961E-16 ) ) ;
#297 = CARTESIAN_POINT ( 'NONE',  ( 1.814378921295066468E-14, 0.4899999999999984923, 5.196587766659072294 ) ) ;
#298 = DIRECTION ( 'NONE',  ( -3.491481338843133355E-15, 1.224646799147352961E-16, -1.000000000000000000 ) ) ;
#299 = AXIS2_PLACEMENT_3D ( 'NONE', #149, #122, #225 ) ;
#300 = LOCAL_TIME ( 15, 49, 29.00000000000000000, #29 ) ;
#301 = DIRECTION ( 'NONE',  ( -3.491481338843133355E-15, 1.224646799147352961E-16, -1.000000000000000000 ) ) ;
#302 = CC_DESIGN_DATE_AND_TIME_ASSIGNMENT ( #287, #91, ( #267 ) ) ;
#303 = AXIS2_PLACEMENT_3D ( 'NONE', #140, #288, #237 ) ;
ENDSEC;
END-ISO-10303-21;
