ISO-10303-21;
HEADER;
FILE_DESCRIPTION (( 'STEP AP203' ),
    '1' );
FILE_NAME ('200043.step',
    '2021-11-29T14:49:28',
    ( '' ),
    ( '' ),
    'SwSTEP 2.0',
    'SolidWorks 2019',
    '' );
FILE_SCHEMA (( 'CONFIG_CONTROL_DESIGN' ));
ENDSEC;

DATA;
#1 = DIRECTION ( 'NONE',  ( -3.491481338843133355E-15, 1.224646799147352961E-16, -1.000000000000000000 ) ) ;
#2 = VERTEX_POINT ( 'NONE', #261 ) ;
#3 = CC_DESIGN_PERSON_AND_ORGANIZATION_ASSIGNMENT ( #86, #61, ( #5 ) ) ;
#4 = DIRECTION ( 'NONE',  ( 4.275831445896957731E-31, 1.000000000000000000, 1.224646799147352961E-16 ) ) ;
#5 = SECURITY_CLASSIFICATION ( '', '', #173 ) ;
#6 = DIRECTION ( 'NONE',  ( 0.0000000000000000000, 1.000000000000000000, 0.0000000000000000000 ) ) ;
#7 = APPROVAL_STATUS ( 'not_yet_approved' ) ;
#8 = ADVANCED_FACE ( 'NONE', ( #301, #65 ), #199, .T. ) ;
#9 = DATE_TIME_ROLE ( 'creation_date' ) ;
#10 = ORIENTED_EDGE ( 'NONE', *, *, #60, .F. ) ;
#11 = AXIS2_PLACEMENT_3D ( 'NONE', #70, #136, #208 ) ;
#12 = APPLICATION_CONTEXT ( 'configuration controlled 3d designs of mechanical parts and assemblies' ) ;
#13 = CALENDAR_DATE ( 2021, 29, 11 ) ;
#14 = COORDINATED_UNIVERSAL_TIME_OFFSET ( 1, 0, .AHEAD. ) ;
#15 = EDGE_LOOP ( 'NONE', ( #216 ) ) ;
#16 = CARTESIAN_POINT ( 'NONE',  ( 4.189777606611760026E-14, -1.469576158976823750E-15, 12.00000000000000000 ) ) ;
#17 = EDGE_LOOP ( 'NONE', ( #32 ) ) ;
#18 = ADVANCED_FACE ( 'NONE', ( #22, #222 ), #73, .F. ) ;
#19 = CARTESIAN_POINT ( 'NONE',  ( 4.189777606611760026E-14, -1.301042606982605321E-15, 12.00000000000000000 ) ) ;
#20 = EDGE_LOOP ( 'NONE', ( #297 ) ) ;
#21 = AXIS2_PLACEMENT_3D ( 'NONE', #165, #79, #209 ) ;
#22 = FACE_OUTER_BOUND ( 'NONE', #62, .T. ) ;
#23 = CARTESIAN_POINT ( 'NONE',  ( 8.728703347107831416E-16, -3.061616997868381785E-17, 0.2499999999999999445 ) ) ;
#24 = DIRECTION ( 'NONE',  ( -3.491481338843133355E-15, 1.224646799147352961E-16, -1.000000000000000000 ) ) ;
#25 = PRODUCT_DEFINITION_FORMATION_WITH_SPECIFIED_SOURCE ( 'ANY', '', #40, .NOT_KNOWN. ) ;
#26 = DIRECTION ( 'NONE',  ( -3.491481338843133355E-15, 1.224646799147352961E-16, -1.000000000000000000 ) ) ;
#27 = CC_DESIGN_PERSON_AND_ORGANIZATION_ASSIGNMENT ( #171, #263, ( #25 ) ) ;
#28 = VERTEX_POINT ( 'NONE', #72 ) ;
#29 = DIRECTION ( 'NONE',  ( 0.0000000000000000000, 1.000000000000000000, 0.0000000000000000000 ) ) ;
#30 = EDGE_LOOP ( 'NONE', ( #38 ) ) ;
#31 = DATE_AND_TIME ( #243, #155 ) ;
#32 = ORIENTED_EDGE ( 'NONE', *, *, #119, .T. ) ;
#33 = DATE_AND_TIME ( #240, #187 ) ;
#34 = CC_DESIGN_PERSON_AND_ORGANIZATION_ASSIGNMENT ( #58, #105, ( #40 ) ) ;
#35 = AXIS2_PLACEMENT_3D ( 'NONE', #16, #135, #138 ) ;
#36 = APPROVAL_STATUS ( 'not_yet_approved' ) ;
#37 = PERSON_AND_ORGANIZATION ( #296, #303 ) ;
#38 = ORIENTED_EDGE ( 'NONE', *, *, #300, .F. ) ;
#39 = FACE_OUTER_BOUND ( 'NONE', #15, .T. ) ;
#40 = PRODUCT ( '200043', '200043', '', ( #284 ) ) ;
#41 = APPROVAL ( #36, 'UNSPECIFIED' ) ;
#42 = APPROVAL_PERSON_ORGANIZATION ( #220, #162, #108 ) ;
#43 = ORIENTED_EDGE ( 'NONE', *, *, #119, .F. ) ;
#44 = DIRECTION ( 'NONE',  ( 4.275831445896957731E-31, 1.000000000000000000, 1.224646799147352961E-16 ) ) ;
#45 = ORIENTED_EDGE ( 'NONE', *, *, #271, .T. ) ;
#46 = PRODUCT_RELATED_PRODUCT_CATEGORY ( 'detail', '', ( #40 ) ) ;
#47 = CYLINDRICAL_SURFACE ( 'NONE', #93, 1.500000000000000444 ) ;
#48 = AXIS2_PLACEMENT_3D ( 'NONE', #234, #52, #4 ) ;
#49 = CARTESIAN_POINT ( 'NONE',  ( 6.270590427156639929E-14, 1.499999999999995559, 17.95968478306212646 ) ) ;
#50 = MANIFOLD_SOLID_BREP ( 'Corps-Déplacer/Copier1[1]', #266 ) ;
#51 = VERTEX_POINT ( 'NONE', #279 ) ;
#52 = DIRECTION ( 'NONE',  ( -3.491481338843133355E-15, 1.224646799147352961E-16, -1.000000000000000000 ) ) ;
#53 = AXIS2_PLACEMENT_3D ( 'NONE', #19, #182, #156 ) ;
#54 = DIRECTION ( 'NONE',  ( 0.0000000000000000000, 1.000000000000000000, 0.0000000000000000000 ) ) ;
#55 = FACE_OUTER_BOUND ( 'NONE', #172, .T. ) ;
#56 = CC_DESIGN_PERSON_AND_ORGANIZATION_ASSIGNMENT ( #37, #80, ( #201 ) ) ;
#57 = DIRECTION ( 'NONE',  ( 0.0000000000000000000, 0.0000000000000000000, 1.000000000000000000 ) ) ;
#58 = PERSON_AND_ORGANIZATION ( #296, #303 ) ;
#59 = EDGE_LOOP ( 'NONE', ( #132 ) ) ;
#60 = EDGE_CURVE ( 'NONE', #126, #126, #270, .T. ) ;
#61 = PERSON_AND_ORGANIZATION_ROLE ( 'classification_officer' ) ;
#62 = EDGE_LOOP ( 'NONE', ( #10 ) ) ;
#63 = CARTESIAN_POINT ( 'NONE',  ( 1.745740669421566678E-14, 4.338055171349411827E-33, 5.000000000000000000 ) ) ;
#64 = ADVANCED_FACE ( 'NONE', ( #153 ), #224, .T. ) ;
#65 = FACE_OUTER_BOUND ( 'NONE', #289, .T. ) ;
#66 = APPROVAL_DATE_TIME ( #91, #41 ) ;
#67 = ORIENTED_EDGE ( 'NONE', *, *, #205, .F. ) ;
#68 = UNCERTAINTY_MEASURE_WITH_UNIT (LENGTH_MEASURE( 1.000000000000000082E-05 ), #239, 'distance_accuracy_value', 'NONE');
#69 = CC_DESIGN_PERSON_AND_ORGANIZATION_ASSIGNMENT ( #109, #149, ( #25 ) ) ;
#70 = CARTESIAN_POINT ( 'NONE',  ( 1.326762908760390423E-13, -4.653657836759941152E-15, 38.00000000000000000 ) ) ;
#71 = ORIENTED_EDGE ( 'NONE', *, *, #60, .T. ) ;
#72 = CARTESIAN_POINT ( 'NONE',  ( -1.892735826383160919E-31, 0.4341624327025950247, -5.421010862427521554E-17 ) ) ;
#73 = TOROIDAL_SURFACE ( 'NONE', #53, 2.479999999999999982, 2.000000000000000000 ) ;
#74 = CARTESIAN_POINT ( 'NONE',  ( 4.311035480981395782E-14, -1.512107695968337265E-15, 12.34729635533384595 ) ) ;
#75 = APPROVAL ( #166, 'UNSPECIFIED' ) ;
#76 = CARTESIAN_POINT ( 'NONE',  ( 1.745740669421566678E-14, 0.5784999999999993481, 5.000000000000000000 ) ) ;
#77 = FACE_OUTER_BOUND ( 'NONE', #267, .T. ) ;
#78 = CIRCLE ( 'NONE', #193, 0.5785000000000000142 ) ;
#79 = DIRECTION ( 'NONE',  ( -3.491481338843133355E-15, 1.224646799147352961E-16, -1.000000000000000000 ) ) ;
#80 = PERSON_AND_ORGANIZATION_ROLE ( 'creator' ) ;
#81 = DATE_AND_TIME ( #13, #210 ) ;
#82 = EDGE_LOOP ( 'NONE', ( #45 ) ) ;
#83 = AXIS2_PLACEMENT_3D ( 'NONE', #114, #203, #273 ) ;
#84 = APPROVAL_DATE_TIME ( #288, #75 ) ;
#85 = DATE_TIME_ROLE ( 'classification_date' ) ;
#86 = PERSON_AND_ORGANIZATION ( #296, #303 ) ;
#87 = EDGE_LOOP ( 'NONE', ( #113 ) ) ;
#88 = AXIS2_PLACEMENT_3D ( 'NONE', #98, #24, #189 ) ;
#89 = LOCAL_TIME ( 15, 49, 28.00000000000000000, #175 ) ;
#90 = CARTESIAN_POINT ( 'NONE',  ( 6.270590427156639929E-14, -2.199427048327245363E-15, 17.95968478306212646 ) ) ;
#91 = DATE_AND_TIME ( #152, #89 ) ;
#92 = DIRECTION ( 'NONE',  ( -3.491481338843133355E-15, 1.224646799147352961E-16, -1.000000000000000000 ) ) ;
#93 = AXIS2_PLACEMENT_3D ( 'NONE', #295, #92, #269 ) ;
#94 = DIRECTION ( 'NONE',  ( 3.491481338843133355E-15, -1.224646799147352961E-16, 1.000000000000000000 ) ) ;
#95 = DIRECTION ( 'NONE',  ( 0.0000000000000000000, 1.000000000000000000, 0.0000000000000000000 ) ) ;
#96 = FACE_OUTER_BOUND ( 'NONE', #293, .T. ) ;
#97 = CARTESIAN_POINT ( 'NONE',  ( 1.745740669421566678E-14, 0.5784999999999993481, 5.000000000000000000 ) ) ;
#98 = CARTESIAN_POINT ( 'NONE',  ( 0.0000000000000000000, 0.0000000000000000000, 0.0000000000000000000 ) ) ;
#99 = DIRECTION ( 'NONE',  ( 3.491481338843133355E-15, -1.224646799147352961E-16, 1.000000000000000000 ) ) ;
#100 = CC_DESIGN_DATE_AND_TIME_ASSIGNMENT ( #31, #9, ( #201 ) ) ;
#101 = DIRECTION ( 'NONE',  ( -4.275831445896957731E-31, -1.000000000000000000, -1.224646799147352961E-16 ) ) ;
#102 = AXIS2_PLACEMENT_3D ( 'NONE', #256, #139, #54 ) ;
#103 = LOCAL_TIME ( 15, 49, 28.00000000000000000, #196 ) ;
#104 = CARTESIAN_POINT ( 'NONE',  ( 4.189777606611760026E-14, 0.4799999999999986500, 12.00000000000000000 ) ) ;
#105 = PERSON_AND_ORGANIZATION_ROLE ( 'design_owner' ) ;
#106 = PERSON_AND_ORGANIZATION ( #296, #303 ) ;
#107 = PRODUCT_DEFINITION_SHAPE ( 'NONE', 'NONE',  #201 ) ;
#108 = APPROVAL_ROLE ( '' ) ;
#109 = PERSON_AND_ORGANIZATION ( #296, #303 ) ;
#110 = SHAPE_DEFINITION_REPRESENTATION ( #107, #294 ) ;
#111 = AXIS2_PLACEMENT_3D ( 'NONE', #249, #137, #101 ) ;
#112 = EDGE_LOOP ( 'NONE', ( #225 ) ) ;
#113 = ORIENTED_EDGE ( 'NONE', *, *, #131, .F. ) ;
#114 = CARTESIAN_POINT ( 'NONE',  ( 1.316288464743861212E-13, -4.616918432785520292E-15, 37.69999999999999574 ) ) ;
#115 = CC_DESIGN_DATE_AND_TIME_ASSIGNMENT ( #33, #85, ( #5 ) ) ;
#116 = CIRCLE ( 'NONE', #218, 0.4341624327025950247 ) ;
#117 = ORIENTED_EDGE ( 'NONE', *, *, #128, .T. ) ;
#118 = PLANE ( 'NONE',  #237 ) ;
#119 = EDGE_CURVE ( 'NONE', #28, #28, #116, .T. ) ;
#120 = DIRECTION ( 'NONE',  ( 3.491481338843133355E-15, -1.224646799147352961E-16, 1.000000000000000000 ) ) ;
#121 = CARTESIAN_POINT ( 'NONE',  ( 1.805307786686233955E-14, 0.4799999999999985945, 5.170607004545538565 ) ) ;
#122 = CC_DESIGN_APPROVAL ( #162, ( #201 ) ) ;
#123 = VERTEX_POINT ( 'NONE', #97 ) ;
#124 = ADVANCED_FACE ( 'NONE', ( #158, #96 ), #47, .T. ) ;
#125 = CYLINDRICAL_SURFACE ( 'NONE', #48, 0.5784999999999996811 ) ;
#126 = VERTEX_POINT ( 'NONE', #104 ) ;
#127 = ORIENTED_EDGE ( 'NONE', *, *, #128, .F. ) ;
#128 = EDGE_CURVE ( 'NONE', #253, #253, #257, .T. ) ;
#129 = CIRCLE ( 'NONE', #11, 1.200000000000003286 ) ;
#130 = COORDINATED_UNIVERSAL_TIME_OFFSET ( 1, 0, .AHEAD. ) ;
#131 = EDGE_CURVE ( 'NONE', #123, #123, #298, .T. ) ;
#132 = ORIENTED_EDGE ( 'NONE', *, *, #271, .F. ) ;
#133 = EDGE_LOOP ( 'NONE', ( #169 ) ) ;
#134 =( GEOMETRIC_REPRESENTATION_CONTEXT ( 3 ) GLOBAL_UNCERTAINTY_ASSIGNED_CONTEXT ( ( #68 ) ) GLOBAL_UNIT_ASSIGNED_CONTEXT ( ( #239, #236, #285 ) ) REPRESENTATION_CONTEXT ( 'NONE', 'WORKASPACE' ) );
#135 = DIRECTION ( 'NONE',  ( -3.491481338843133355E-15, 1.224646799147352961E-16, -1.000000000000000000 ) ) ;
#136 = DIRECTION ( 'NONE',  ( -3.491481338843133355E-15, 1.224646799147352961E-16, -1.000000000000000000 ) ) ;
#137 = DIRECTION ( 'NONE',  ( 3.491481338843133355E-15, -1.224646799147352961E-16, 1.000000000000000000 ) ) ;
#138 = DIRECTION ( 'NONE',  ( 0.0000000000000000000, 1.000000000000000000, 0.0000000000000000000 ) ) ;
#139 = DIRECTION ( 'NONE',  ( -3.491481338843133355E-15, 1.224646799147352961E-16, -1.000000000000000000 ) ) ;
#140 = VERTEX_POINT ( 'NONE', #121 ) ;
#141 = FACE_OUTER_BOUND ( 'NONE', #87, .T. ) ;
#142 = AXIS2_PLACEMENT_3D ( 'NONE', #90, #247, #250 ) ;
#143 = DIRECTION ( 'NONE',  ( 3.329178814843972573E-31, 1.000000000000000000, 9.370805293738165236E-17 ) ) ;
#144 = CYLINDRICAL_SURFACE ( 'NONE', #88, 0.4799999999999997047 ) ;
#145 = APPLICATION_PROTOCOL_DEFINITION ( 'international standard', 'config_control_design', 1994, #262 ) ;
#146 = CONICAL_SURFACE ( 'NONE', #102, 0.4799999999999992606, 0.5235987755982928205 ) ;
#147 = CIRCLE ( 'NONE', #215, 0.4799999999999992606 ) ;
#148 = APPLICATION_PROTOCOL_DEFINITION ( 'international standard', 'config_control_design', 1994, #12 ) ;
#149 = PERSON_AND_ORGANIZATION_ROLE ( 'design_supplier' ) ;
#150 = ADVANCED_FACE ( 'NONE', ( #39 ), #118, .F. ) ;
#151 = AXIS2_PLACEMENT_3D ( 'NONE', #268, #180, #95 ) ;
#152 = CALENDAR_DATE ( 2021, 29, 11 ) ;
#153 = FACE_OUTER_BOUND ( 'NONE', #59, .T. ) ;
#154 = CARTESIAN_POINT ( 'NONE',  ( 1.326762908760390423E-13, 8.998558695971099120E-33, 38.00000000000000000 ) ) ;
#155 = LOCAL_TIME ( 15, 49, 28.00000000000000000, #14 ) ;
#156 = DIRECTION ( 'NONE',  ( 4.275831445896957731E-31, 1.000000000000000000, 1.224646799147352961E-16 ) ) ;
#157 = PLANE ( 'NONE',  #111 ) ;
#158 = FACE_OUTER_BOUND ( 'NONE', #207, .T. ) ;
#159 = DIRECTION ( 'NONE',  ( -3.491481338843133355E-15, 1.224646799147352961E-16, -1.000000000000000000 ) ) ;
#160 = CARTESIAN_POINT ( 'NONE',  ( 1.316288464743861212E-13, 1.499999999999998668, 37.69999999999999574 ) ) ;
#161 = CARTESIAN_POINT ( 'NONE',  ( 1.326762908760390423E-13, 1.199999999999998845, 38.00000000000000000 ) ) ;
#162 = APPROVAL ( #7, 'UNSPECIFIED' ) ;
#163 = CARTESIAN_POINT ( 'NONE',  ( 1.745740669421566678E-14, -6.123233995736765296E-16, 5.000000000000000000 ) ) ;
#164 = AXIS2_PLACEMENT_3D ( 'NONE', #245, #94, #230 ) ;
#165 = CARTESIAN_POINT ( 'NONE',  ( 1.326762908760390423E-13, -4.653657836759941152E-15, 38.00000000000000000 ) ) ;
#166 = APPROVAL_STATUS ( 'not_yet_approved' ) ;
#167 = EDGE_CURVE ( 'NONE', #188, #188, #129, .T. ) ;
#168 = APPROVAL_DATE_TIME ( #81, #162 ) ;
#169 = ORIENTED_EDGE ( 'NONE', *, *, #167, .T. ) ;
#170 = AXIS2_PLACEMENT_3D ( 'NONE', #217, #57, #241 ) ;
#171 = PERSON_AND_ORGANIZATION ( #296, #303 ) ;
#172 = EDGE_LOOP ( 'NONE', ( #244 ) ) ;
#173 = SECURITY_CLASSIFICATION_LEVEL ( 'unclassified' ) ;
#174 = EDGE_LOOP ( 'NONE', ( #43 ) ) ;
#175 = COORDINATED_UNIVERSAL_TIME_OFFSET ( 1, 0, .AHEAD. ) ;
#176 = ORIENTED_EDGE ( 'NONE', *, *, #205, .T. ) ;
#177 = AXIS2_PLACEMENT_3D ( 'NONE', #231, #99, #213 ) ;
#178 = APPROVAL_PERSON_ORGANIZATION ( #264, #41, #197 ) ;
#179 = DIRECTION ( 'NONE',  ( 4.275831445896957731E-31, 1.000000000000000000, 1.224646799147352961E-16 ) ) ;
#180 = DIRECTION ( 'NONE',  ( -3.491481338843133355E-15, 1.224646799147352961E-16, -1.000000000000000000 ) ) ;
#181 = CLOSED_SHELL ( 'NONE', ( #280, #219, #291, #64 ) ) ;
#182 = DIRECTION ( 'NONE',  ( -3.491481338843133355E-15, 1.224646799147352961E-16, -1.000000000000000000 ) ) ;
#183 = EDGE_CURVE ( 'NONE', #278, #278, #228, .T. ) ;
#184 = DIRECTION ( 'NONE',  ( -3.491481338843133355E-15, 1.224646799147352961E-16, -1.000000000000000000 ) ) ;
#185 = FACE_OUTER_BOUND ( 'NONE', #292, .T. ) ;
#186 = CIRCLE ( 'NONE', #251, 0.5103844939755822763 ) ;
#187 = LOCAL_TIME ( 15, 49, 28.00000000000000000, #290 ) ;
#188 = VERTEX_POINT ( 'NONE', #161 ) ;
#189 = DIRECTION ( 'NONE',  ( 4.275831445896957731E-31, 1.000000000000000000, 1.224646799147352714E-16 ) ) ;
#190 = ADVANCED_FACE ( 'NONE', ( #185 ), #157, .F. ) ;
#191 = FACE_BOUND ( 'NONE', #133, .T. ) ;
#192 = DIRECTION ( 'NONE',  ( -3.491481338843133355E-15, 1.224646799147352961E-16, -1.000000000000000000 ) ) ;
#193 = AXIS2_PLACEMENT_3D ( 'NONE', #163, #1, #274 ) ;
#194 = EDGE_LOOP ( 'NONE', ( #176 ) ) ;
#195 = APPROVAL_ROLE ( '' ) ;
#196 = COORDINATED_UNIVERSAL_TIME_OFFSET ( 1, 0, .AHEAD. ) ;
#197 = APPROVAL_ROLE ( '' ) ;
#198 = ORIENTED_EDGE ( 'NONE', *, *, #183, .T. ) ;
#199 = CONICAL_SURFACE ( 'NONE', #164, 1.499999999999997558, 0.1745329251994258701 ) ;
#200 = ORIENTED_EDGE ( 'NONE', *, *, #131, .T. ) ;
#201 = PRODUCT_DEFINITION ( 'UNKNOWN', '', #25, #248 ) ;
#202 = DIRECTION ( 'NONE',  ( 3.491481338843133355E-15, -1.224646799147352961E-16, 1.000000000000000000 ) ) ;
#203 = DIRECTION ( 'NONE',  ( -3.491481338843133355E-15, 1.224646799147352961E-16, -1.000000000000000000 ) ) ;
#204 = AXIS2_PLACEMENT_3D ( 'NONE', #23, #159, #143 ) ;
#205 = EDGE_CURVE ( 'NONE', #51, #51, #287, .T. ) ;
#206 = CC_DESIGN_APPROVAL ( #75, ( #25 ) ) ;
#207 = EDGE_LOOP ( 'NONE', ( #127 ) ) ;
#208 = DIRECTION ( 'NONE',  ( 0.0000000000000000000, 1.000000000000000000, 0.0000000000000000000 ) ) ;
#209 = DIRECTION ( 'NONE',  ( 0.0000000000000000000, 1.000000000000000000, 0.0000000000000000000 ) ) ;
#210 = LOCAL_TIME ( 15, 49, 28.00000000000000000, #130 ) ;
#211 = CARTESIAN_POINT ( 'NONE',  ( 1.805307786686233955E-14, -6.332167317765576132E-16, 5.170607004545538565 ) ) ;
#212 = PLANE ( 'NONE',  #177 ) ;
#213 = DIRECTION ( 'NONE',  ( -4.275831445896957731E-31, -1.000000000000000000, -1.224646799147352961E-16 ) ) ;
#214 = FACE_OUTER_BOUND ( 'NONE', #227, .T. ) ;
#215 = AXIS2_PLACEMENT_3D ( 'NONE', #211, #26, #29 ) ;
#216 = ORIENTED_EDGE ( 'NONE', *, *, #167, .F. ) ;
#217 = CARTESIAN_POINT ( 'NONE',  ( 0.0000000000000000000, 0.0000000000000000000, 0.0000000000000000000 ) ) ;
#218 = AXIS2_PLACEMENT_3D ( 'NONE', #299, #184, #179 ) ;
#219 = ADVANCED_FACE ( 'NONE', ( #259, #281 ), #282, .T. ) ;
#220 = PERSON_AND_ORGANIZATION ( #296, #303 ) ;
#221 = ORIENTED_EDGE ( 'NONE', *, *, #183, .F. ) ;
#222 = FACE_OUTER_BOUND ( 'NONE', #112, .T. ) ;
#223 = AXIS2_PLACEMENT_3D ( 'NONE', #63, #202, #272 ) ;
#224 = PLANE ( 'NONE',  #223 ) ;
#225 = ORIENTED_EDGE ( 'NONE', *, *, #300, .T. ) ;
#226 = EDGE_CURVE ( 'NONE', #140, #140, #147, .T. ) ;
#227 = EDGE_LOOP ( 'NONE', ( #71 ) ) ;
#228 = CIRCLE ( 'NONE', #83, 1.500000000000003331 ) ;
#229 = APPROVAL_PERSON_ORGANIZATION ( #106, #75, #195 ) ;
#230 = DIRECTION ( 'NONE',  ( 0.0000000000000000000, -1.000000000000000000, 0.0000000000000000000 ) ) ;
#231 = CARTESIAN_POINT ( 'NONE',  ( -1.874570604380019368E-31, 6.575108578957383257E-33, -5.368983598810065885E-17 ) ) ;
#232 = VERTEX_POINT ( 'NONE', #76 ) ;
#233 = DIRECTION ( 'NONE',  ( -3.329178814843972573E-31, -1.000000000000000000, -9.370805293738165236E-17 ) ) ;
#234 = CARTESIAN_POINT ( 'NONE',  ( 0.0000000000000000000, 0.0000000000000000000, 0.0000000000000000000 ) ) ;
#235 = FACE_OUTER_BOUND ( 'NONE', #238, .T. ) ;
#236 =( NAMED_UNIT ( * ) PLANE_ANGLE_UNIT ( ) SI_UNIT ( $, .RADIAN. ) );
#237 = AXIS2_PLACEMENT_3D ( 'NONE', #154, #246, #44 ) ;
#238 = EDGE_LOOP ( 'NONE', ( #221 ) ) ;
#239 =( LENGTH_UNIT ( ) NAMED_UNIT ( * ) SI_UNIT ( .MILLI., .METRE. ) );
#240 = CALENDAR_DATE ( 2021, 29, 11 ) ;
#241 = DIRECTION ( 'NONE',  ( 1.000000000000000000, 0.0000000000000000000, 0.0000000000000000000 ) ) ;
#242 = MANIFOLD_SOLID_BREP ( 'Corps-Déplacer/Copier1[2]', #181 ) ;
#243 = CALENDAR_DATE ( 2021, 29, 11 ) ;
#244 = ORIENTED_EDGE ( 'NONE', *, *, #226, .F. ) ;
#245 = CARTESIAN_POINT ( 'NONE',  ( 6.270590427156639929E-14, -2.199427048327245363E-15, 17.95968478306212646 ) ) ;
#246 = DIRECTION ( 'NONE',  ( -3.491481338843133355E-15, 1.224646799147352961E-16, -1.000000000000000000 ) ) ;
#247 = DIRECTION ( 'NONE',  ( -3.491481338843133355E-15, 1.224646799147352961E-16, -1.000000000000000000 ) ) ;
#248 = DESIGN_CONTEXT ( 'detailed design', #12, 'design' ) ;
#249 = CARTESIAN_POINT ( 'NONE',  ( 1.745740669421566678E-14, 4.338055171349411827E-33, 5.000000000000000000 ) ) ;
#250 = DIRECTION ( 'NONE',  ( 0.0000000000000000000, 1.000000000000000000, 0.0000000000000000000 ) ) ;
#251 = AXIS2_PLACEMENT_3D ( 'NONE', #74, #192, #6 ) ;
#252 = CC_DESIGN_APPROVAL ( #41, ( #5 ) ) ;
#253 = VERTEX_POINT ( 'NONE', #49 ) ;
#254 = ADVANCED_FACE ( 'NONE', ( #235, #191 ), #276, .T. ) ;
#255 = FACE_OUTER_BOUND ( 'NONE', #82, .T. ) ;
#256 = CARTESIAN_POINT ( 'NONE',  ( 1.805307786686233955E-14, -6.332167317765576132E-16, 5.170607004545538565 ) ) ;
#257 = CIRCLE ( 'NONE', #142, 1.499999999999997558 ) ;
#258 = CC_DESIGN_SECURITY_CLASSIFICATION ( #5, ( #25 ) ) ;
#259 = FACE_BOUND ( 'NONE', #174, .T. ) ;
#260 = FACE_BOUND ( 'NONE', #20, .T. ) ;
#261 = CARTESIAN_POINT ( 'NONE',  ( 4.311035480981395782E-14, 0.5103844939755807220, 12.34729635533384595 ) ) ;
#262 = APPLICATION_CONTEXT ( 'configuration controlled 3d designs of mechanical parts and assemblies' ) ;
#263 = PERSON_AND_ORGANIZATION_ROLE ( 'creator' ) ;
#264 = PERSON_AND_ORGANIZATION ( #296, #303 ) ;
#265 = CALENDAR_DATE ( 2021, 29, 11 ) ;
#266 = CLOSED_SHELL ( 'NONE', ( #190, #275, #286, #18, #8, #124, #254, #150 ) ) ;
#267 = EDGE_LOOP ( 'NONE', ( #67 ) ) ;
#268 = CARTESIAN_POINT ( 'NONE',  ( 1.745740669421566678E-14, -6.123233995736765296E-16, 5.000000000000000000 ) ) ;
#269 = DIRECTION ( 'NONE',  ( 4.275831445896957731E-31, 1.000000000000000000, 1.224646799147353207E-16 ) ) ;
#270 = CIRCLE ( 'NONE', #35, 0.4800000000000000933 ) ;
#271 = EDGE_CURVE ( 'NONE', #232, #232, #78, .T. ) ;
#272 = DIRECTION ( 'NONE',  ( -4.275831445896957731E-31, -1.000000000000000000, -1.224646799147352961E-16 ) ) ;
#273 = DIRECTION ( 'NONE',  ( 0.0000000000000000000, 1.000000000000000000, 0.0000000000000000000 ) ) ;
#274 = DIRECTION ( 'NONE',  ( 0.0000000000000000000, 1.000000000000000000, 0.0000000000000000000 ) ) ;
#275 = ADVANCED_FACE ( 'NONE', ( #141, #260 ), #146, .T. ) ;
#276 = CONICAL_SURFACE ( 'NONE', #21, 1.200000000000003286, 0.7853981633974453924 ) ;
#277 = AXIS2_PLACEMENT_3D ( 'NONE', #283, #120, #233 ) ;
#278 = VERTEX_POINT ( 'NONE', #160 ) ;
#279 = CARTESIAN_POINT ( 'NONE',  ( 8.728703347107833388E-16, 0.5784999999999993481, 0.2500000000000000000 ) ) ;
#280 = ADVANCED_FACE ( 'NONE', ( #302 ), #212, .F. ) ;
#281 = FACE_OUTER_BOUND ( 'NONE', #194, .T. ) ;
#282 = CONICAL_SURFACE ( 'NONE', #277, 0.5784999999999993481, 0.5235987755982924874 ) ;
#283 = CARTESIAN_POINT ( 'NONE',  ( 8.728703347107831416E-16, -3.061616997868381785E-17, 0.2499999999999999445 ) ) ;
#284 = MECHANICAL_CONTEXT ( 'NONE', #262, 'mechanical' ) ;
#285 =( NAMED_UNIT ( * ) SI_UNIT ( $, .STERADIAN. ) SOLID_ANGLE_UNIT ( ) );
#286 = ADVANCED_FACE ( 'NONE', ( #55, #214 ), #144, .T. ) ;
#287 = CIRCLE ( 'NONE', #204, 0.5784999999999993481 ) ;
#288 = DATE_AND_TIME ( #265, #103 ) ;
#289 = EDGE_LOOP ( 'NONE', ( #117 ) ) ;
#290 = COORDINATED_UNIVERSAL_TIME_OFFSET ( 1, 0, .AHEAD. ) ;
#291 = ADVANCED_FACE ( 'NONE', ( #77, #255 ), #125, .T. ) ;
#292 = EDGE_LOOP ( 'NONE', ( #200 ) ) ;
#293 = EDGE_LOOP ( 'NONE', ( #198 ) ) ;
#294 = ADVANCED_BREP_SHAPE_REPRESENTATION ( '200043', ( #50, #242, #170 ), #134 ) ;
#295 = CARTESIAN_POINT ( 'NONE',  ( 0.0000000000000000000, 0.0000000000000000000, 0.0000000000000000000 ) ) ;
#296 = PERSON ( 'UNSPECIFIED', 'UNSPECIFIED', 'UNSPECIFIED', ('UNSPECIFIED'), ('UNSPECIFIED'), ('UNSPECIFIED') ) ;
#297 = ORIENTED_EDGE ( 'NONE', *, *, #226, .T. ) ;
#298 = CIRCLE ( 'NONE', #151, 0.5785000000000000142 ) ;
#299 = CARTESIAN_POINT ( 'NONE',  ( -3.749141208760038736E-31, 1.315021715791476651E-32, -1.073796719762013177E-16 ) ) ;
#300 = EDGE_CURVE ( 'NONE', #2, #2, #186, .T. ) ;
#301 = FACE_BOUND ( 'NONE', #30, .T. ) ;
#302 = FACE_OUTER_BOUND ( 'NONE', #17, .T. ) ;
#303 = ORGANIZATION ( 'UNSPECIFIED', 'UNSPECIFIED', '' ) ;
ENDSEC;
END-ISO-10303-21;
