ISO-10303-21;
HEADER;
FILE_DESCRIPTION (( 'STEP AP203' ),
    '1' );
FILE_NAME ('200042.step',
    '2021-11-29T14:49:28',
    ( '' ),
    ( '' ),
    'SwSTEP 2.0',
    'SolidWorks 2019',
    '' );
FILE_SCHEMA (( 'CONFIG_CONTROL_DESIGN' ));
ENDSEC;

DATA;
#1 = PLANE ( 'NONE',  #168 ) ;
#2 = DATE_TIME_ROLE ( 'creation_date' ) ;
#3 = DIRECTION ( 'NONE',  ( -3.491481338843133355E-15, 1.224646799147352961E-16, -1.000000000000000000 ) ) ;
#4 = PERSON_AND_ORGANIZATION_ROLE ( 'creator' ) ;
#5 = AXIS2_PLACEMENT_3D ( 'NONE', #249, #38, #130 ) ;
#6 = CC_DESIGN_DATE_AND_TIME_ASSIGNMENT ( #96, #2, ( #230 ) ) ;
#7 = COORDINATED_UNIVERSAL_TIME_OFFSET ( 1, 0, .AHEAD. ) ;
#8 = EDGE_CURVE ( 'NONE', #270, #270, #69, .T. ) ;
#9 = PERSON_AND_ORGANIZATION ( #67, #111 ) ;
#10 = VERTEX_POINT ( 'NONE', #289 ) ;
#11 = FACE_OUTER_BOUND ( 'NONE', #155, .T. ) ;
#12 = COORDINATED_UNIVERSAL_TIME_OFFSET ( 1, 0, .AHEAD. ) ;
#13 = CARTESIAN_POINT ( 'NONE',  ( -1.326559597481032146E-31, 4.652944716787833482E-33, -3.799417693352397773E-17 ) ) ;
#14 = PLANE ( 'NONE',  #132 ) ;
#15 = EDGE_CURVE ( 'NONE', #268, #268, #224, .T. ) ;
#16 = EDGE_LOOP ( 'NONE', ( #203 ) ) ;
#17 = AXIS2_PLACEMENT_3D ( 'NONE', #172, #79, #102 ) ;
#18 = AXIS2_PLACEMENT_3D ( 'NONE', #273, #173, #291 ) ;
#19 = DIRECTION ( 'NONE',  ( 0.0000000000000000000, 1.000000000000000000, 0.0000000000000000000 ) ) ;
#20 = DIRECTION ( 'NONE',  ( 0.0000000000000000000, 1.000000000000000000, 0.0000000000000000000 ) ) ;
#21 = CIRCLE ( 'NONE', #246, 0.3991624327025948271 ) ;
#22 = CARTESIAN_POINT ( 'NONE',  ( 0.0000000000000000000, 0.0000000000000000000, 0.0000000000000000000 ) ) ;
#23 = ORIENTED_EDGE ( 'NONE', *, *, #265, .T. ) ;
#24 = COORDINATED_UNIVERSAL_TIME_OFFSET ( 1, 0, .AHEAD. ) ;
#25 = FACE_BOUND ( 'NONE', #109, .T. ) ;
#26 = CARTESIAN_POINT ( 'NONE',  ( 3.840629472727446691E-14, -1.347111479062088207E-15, 11.00000000000000000 ) ) ;
#27 = AXIS2_PLACEMENT_3D ( 'NONE', #209, #188, #43 ) ;
#28 = PERSON_AND_ORGANIZATION ( #67, #111 ) ;
#29 = CC_DESIGN_APPROVAL ( #30, ( #261 ) ) ;
#30 = APPROVAL ( #191, 'UNSPECIFIED' ) ;
#31 = VERTEX_POINT ( 'NONE', #127 ) ;
#32 = ADVANCED_FACE ( 'NONE', ( #115, #25 ), #244, .T. ) ;
#33 = AXIS2_PLACEMENT_3D ( 'NONE', #83, #148, #62 ) ;
#34 = CARTESIAN_POINT ( 'NONE',  ( 3.961887347097082447E-14, 0.5003844939755800469, 11.34729635533384595 ) ) ;
#35 = APPROVAL_DATE_TIME ( #177, #30 ) ;
#36 = CARTESIAN_POINT ( 'NONE',  ( 1.316288464743861212E-13, 1.499999999999998668, 37.69999999999999574 ) ) ;
#37 = CC_DESIGN_PERSON_AND_ORGANIZATION_ASSIGNMENT ( #189, #279, ( #238 ) ) ;
#38 = DIRECTION ( 'NONE',  ( -3.491481338843133355E-15, 1.224646799147352961E-16, -1.000000000000000000 ) ) ;
#39 = TOROIDAL_SURFACE ( 'NONE', #288, 2.469999999999999751, 2.000000000000000000 ) ;
#40 = EDGE_LOOP ( 'NONE', ( #63 ) ) ;
#41 = ORIENTED_EDGE ( 'NONE', *, *, #98, .T. ) ;
#42 = AXIS2_PLACEMENT_3D ( 'NONE', #169, #211, #243 ) ;
#43 = DIRECTION ( 'NONE',  ( 0.0000000000000000000, 1.000000000000000000, 0.0000000000000000000 ) ) ;
#44 = EDGE_LOOP ( 'NONE', ( #187 ) ) ;
#45 = EDGE_CURVE ( 'NONE', #129, #129, #21, .T. ) ;
#46 = DIRECTION ( 'NONE',  ( -3.491481338843133355E-15, 1.224646799147352961E-16, -1.000000000000000000 ) ) ;
#47 = CARTESIAN_POINT ( 'NONE',  ( 8.728703347107831416E-16, -3.061616997868381785E-17, 0.2499999999999999445 ) ) ;
#48 = APPROVAL_DATE_TIME ( #54, #199 ) ;
#49 =( GEOMETRIC_REPRESENTATION_CONTEXT ( 3 ) GLOBAL_UNCERTAINTY_ASSIGNED_CONTEXT ( ( #162 ) ) GLOBAL_UNIT_ASSIGNED_CONTEXT ( ( #282, #170, #267 ) ) REPRESENTATION_CONTEXT ( 'NONE', 'WORKASPACE' ) );
#50 = DESIGN_CONTEXT ( 'detailed design', #174, 'design' ) ;
#51 = DIRECTION ( 'NONE',  ( -3.491481338843133355E-15, 1.224646799147352961E-16, -1.000000000000000000 ) ) ;
#52 = APPLICATION_PROTOCOL_DEFINITION ( 'international standard', 'config_control_design', 1994, #154 ) ;
#53 = MANIFOLD_SOLID_BREP ( 'Corps-Déplacer/Copier1[1]', #208 ) ;
#54 = DATE_AND_TIME ( #121, #275 ) ;
#55 = CIRCLE ( 'NONE', #145, 1.200000000000003286 ) ;
#56 = APPROVAL_ROLE ( '' ) ;
#57 = CARTESIAN_POINT ( 'NONE',  ( -9.463679131915808972E-32, 0.3991624327025948271, -2.710505431213761085E-17 ) ) ;
#58 = DIRECTION ( 'NONE',  ( -3.491481338843133355E-15, 1.224646799147352961E-16, -1.000000000000000000 ) ) ;
#59 = LOCAL_TIME ( 15, 49, 28.00000000000000000, #161 ) ;
#60 = CARTESIAN_POINT ( 'NONE',  ( 3.840629472727446691E-14, -1.301042606982605321E-15, 11.00000000000000000 ) ) ;
#61 = CC_DESIGN_PERSON_AND_ORGANIZATION_ASSIGNMENT ( #139, #4, ( #230 ) ) ;
#62 = DIRECTION ( 'NONE',  ( -4.275831445896957731E-31, -1.000000000000000000, -1.224646799147352961E-16 ) ) ;
#63 = ORIENTED_EDGE ( 'NONE', *, *, #8, .T. ) ;
#64 = EDGE_CURVE ( 'NONE', #245, #245, #106, .T. ) ;
#65 = CARTESIAN_POINT ( 'NONE',  ( 1.326762908760390423E-13, 8.998558695971099120E-33, 38.00000000000000000 ) ) ;
#66 = CIRCLE ( 'NONE', #195, 0.4699999999999999734 ) ;
#67 = PERSON ( 'UNSPECIFIED', 'UNSPECIFIED', 'UNSPECIFIED', ('UNSPECIFIED'), ('UNSPECIFIED'), ('UNSPECIFIED') ) ;
#68 = EDGE_LOOP ( 'NONE', ( #23 ) ) ;
#69 = CIRCLE ( 'NONE', #27, 1.500000000000003331 ) ;
#70 = DIRECTION ( 'NONE',  ( 4.275831445896957731E-31, 1.000000000000000000, 1.224646799147352714E-16 ) ) ;
#71 = EDGE_CURVE ( 'NONE', #31, #31, #66, .T. ) ;
#72 = DIRECTION ( 'NONE',  ( 4.275831445896957731E-31, 1.000000000000000000, 1.224646799147353207E-16 ) ) ;
#73 = DIRECTION ( 'NONE',  ( 0.0000000000000000000, 1.000000000000000000, 0.0000000000000000000 ) ) ;
#74 = FACE_OUTER_BOUND ( 'NONE', #44, .T. ) ;
#75 = CALENDAR_DATE ( 2021, 29, 11 ) ;
#76 = PRODUCT_DEFINITION_SHAPE ( 'NONE', 'NONE',  #230 ) ;
#77 = PERSON_AND_ORGANIZATION_ROLE ( 'creator' ) ;
#78 = DIRECTION ( 'NONE',  ( 4.275831445896957731E-31, 1.000000000000000000, 1.224646799147352961E-16 ) ) ;
#79 = DIRECTION ( 'NONE',  ( -3.491481338843133355E-15, 1.224646799147352961E-16, -1.000000000000000000 ) ) ;
#80 = VERTEX_POINT ( 'NONE', #218 ) ;
#81 = AXIS2_PLACEMENT_3D ( 'NONE', #259, #140, #73 ) ;
#82 = APPROVAL_PERSON_ORGANIZATION ( #93, #199, #56 ) ;
#83 = CARTESIAN_POINT ( 'NONE',  ( 1.745740669421566678E-14, 4.075597209383586198E-33, 5.000000000000000000 ) ) ;
#84 = ORIENTED_EDGE ( 'NONE', *, *, #71, .F. ) ;
#85 = DIRECTION ( 'NONE',  ( -4.275831445896957731E-31, -1.000000000000000000, -1.224646799147352961E-16 ) ) ;
#86 = EDGE_LOOP ( 'NONE', ( #205 ) ) ;
#87 = AXIS2_PLACEMENT_3D ( 'NONE', #295, #58, #222 ) ;
#88 = CYLINDRICAL_SURFACE ( 'NONE', #137, 0.5434999999999996501 ) ;
#89 = ADVANCED_FACE ( 'NONE', ( #186, #276 ), #264, .T. ) ;
#90 = DIRECTION ( 'NONE',  ( -3.491481338843133355E-15, 1.224646799147352961E-16, -1.000000000000000000 ) ) ;
#91 = EDGE_LOOP ( 'NONE', ( #251 ) ) ;
#92 = DIRECTION ( 'NONE',  ( 3.491481338843133355E-15, -1.224646799147352961E-16, 1.000000000000000000 ) ) ;
#93 = PERSON_AND_ORGANIZATION ( #67, #111 ) ;
#94 = CARTESIAN_POINT ( 'NONE',  ( 1.745740669421566678E-14, 4.075597209383586198E-33, 5.000000000000000000 ) ) ;
#95 = APPLICATION_PROTOCOL_DEFINITION ( 'international standard', 'config_control_design', 1994, #174 ) ;
#96 = DATE_AND_TIME ( #284, #293 ) ;
#97 = DATE_TIME_ROLE ( 'classification_date' ) ;
#98 = EDGE_CURVE ( 'NONE', #80, #80, #237, .T. ) ;
#99 = DATE_AND_TIME ( #75, #215 ) ;
#100 = AXIS2_PLACEMENT_3D ( 'NONE', #302, #92, #298 ) ;
#101 = AXIS2_PLACEMENT_3D ( 'NONE', #220, #271, #248 ) ;
#102 = DIRECTION ( 'NONE',  ( 4.275831445896957731E-31, 1.000000000000000000, 1.224646799147353207E-16 ) ) ;
#103 = ADVANCED_BREP_SHAPE_REPRESENTATION ( '200042', ( #53, #252, #42 ), #49 ) ;
#104 = FACE_OUTER_BOUND ( 'NONE', #229, .T. ) ;
#105 = DIRECTION ( 'NONE',  ( 4.275831445896957731E-31, 1.000000000000000000, 1.224646799147352961E-16 ) ) ;
#106 = CIRCLE ( 'NONE', #81, 0.4699999999999993072 ) ;
#107 = CIRCLE ( 'NONE', #18, 0.5003844939755814902 ) ;
#108 = FACE_OUTER_BOUND ( 'NONE', #116, .T. ) ;
#109 = EDGE_LOOP ( 'NONE', ( #232 ) ) ;
#110 = AXIS2_PLACEMENT_3D ( 'NONE', #47, #113, #257 ) ;
#111 = ORGANIZATION ( 'UNSPECIFIED', 'UNSPECIFIED', '' ) ;
#112 = APPROVAL ( #136, 'UNSPECIFIED' ) ;
#113 = DIRECTION ( 'NONE',  ( 3.491481338843133355E-15, -1.224646799147352961E-16, 1.000000000000000000 ) ) ;
#114 = ORIENTED_EDGE ( 'NONE', *, *, #125, .F. ) ;
#115 = FACE_OUTER_BOUND ( 'NONE', #235, .T. ) ;
#116 = EDGE_LOOP ( 'NONE', ( #254 ) ) ;
#117 = FACE_BOUND ( 'NONE', #258, .T. ) ;
#118 = ORIENTED_EDGE ( 'NONE', *, *, #266, .F. ) ;
#119 = CARTESIAN_POINT ( 'NONE',  ( 8.728703347107833388E-16, 0.5434999999999993170, 0.2500000000000000000 ) ) ;
#120 = DIRECTION ( 'NONE',  ( 0.0000000000000000000, 1.000000000000000000, 0.0000000000000000000 ) ) ;
#121 = CALENDAR_DATE ( 2021, 29, 11 ) ;
#122 = ADVANCED_FACE ( 'NONE', ( #300, #233 ), #88, .T. ) ;
#123 = FACE_OUTER_BOUND ( 'NONE', #301, .T. ) ;
#124 = ADVANCED_FACE ( 'NONE', ( #117, #160 ), #185, .T. ) ;
#125 = EDGE_CURVE ( 'NONE', #10, #10, #55, .T. ) ;
#126 = PERSON_AND_ORGANIZATION ( #67, #111 ) ;
#127 = CARTESIAN_POINT ( 'NONE',  ( 3.840629472727446691E-14, 0.4699999999999986411, 11.00000000000000000 ) ) ;
#128 = PLANE ( 'NONE',  #33 ) ;
#129 = VERTEX_POINT ( 'NONE', #57 ) ;
#130 = DIRECTION ( 'NONE',  ( 0.0000000000000000000, 1.000000000000000000, 0.0000000000000000000 ) ) ;
#131 = ORIENTED_EDGE ( 'NONE', *, *, #8, .F. ) ;
#132 = AXIS2_PLACEMENT_3D ( 'NONE', #13, #292, #85 ) ;
#133 = DIRECTION ( 'NONE',  ( -3.491481338843133355E-15, 1.224646799147352961E-16, -1.000000000000000000 ) ) ;
#134 = EDGE_LOOP ( 'NONE', ( #297 ) ) ;
#135 = DIRECTION ( 'NONE',  ( 0.0000000000000000000, 1.000000000000000000, 0.0000000000000000000 ) ) ;
#136 = APPROVAL_STATUS ( 'not_yet_approved' ) ;
#137 = AXIS2_PLACEMENT_3D ( 'NONE', #22, #163, #70 ) ;
#138 = CARTESIAN_POINT ( 'NONE',  ( 1.326762908760390423E-13, -4.653657836759941152E-15, 38.00000000000000000 ) ) ;
#139 = PERSON_AND_ORGANIZATION ( #67, #111 ) ;
#140 = DIRECTION ( 'NONE',  ( -3.491481338843133355E-15, 1.224646799147352961E-16, -1.000000000000000000 ) ) ;
#141 = CARTESIAN_POINT ( 'NONE',  ( 1.745740669421566678E-14, 0.5434999999999993170, 5.000000000000000000 ) ) ;
#142 = PERSON_AND_ORGANIZATION_ROLE ( 'classification_officer' ) ;
#143 = CC_DESIGN_PERSON_AND_ORGANIZATION_ASSIGNMENT ( #194, #77, ( #238 ) ) ;
#144 = FACE_OUTER_BOUND ( 'NONE', #91, .T. ) ;
#145 = AXIS2_PLACEMENT_3D ( 'NONE', #138, #133, #120 ) ;
#146 = CALENDAR_DATE ( 2021, 29, 11 ) ;
#147 = CC_DESIGN_APPROVAL ( #199, ( #238 ) ) ;
#148 = DIRECTION ( 'NONE',  ( 3.491481338843133355E-15, -1.224646799147352961E-16, 1.000000000000000000 ) ) ;
#149 = FACE_OUTER_BOUND ( 'NONE', #150, .T. ) ;
#150 = EDGE_LOOP ( 'NONE', ( #84 ) ) ;
#151 = ADVANCED_FACE ( 'NONE', ( #241, #231 ), #227, .T. ) ;
#152 = AXIS2_PLACEMENT_3D ( 'NONE', #213, #157, #20 ) ;
#153 = APPROVAL_PERSON_ORGANIZATION ( #126, #112, #236 ) ;
#154 = APPLICATION_CONTEXT ( 'configuration controlled 3d designs of mechanical parts and assemblies' ) ;
#155 = EDGE_LOOP ( 'NONE', ( #114 ) ) ;
#156 = CIRCLE ( 'NONE', #5, 0.5434999999999999831 ) ;
#157 = DIRECTION ( 'NONE',  ( -3.491481338843133355E-15, 1.224646799147352961E-16, -1.000000000000000000 ) ) ;
#158 = EDGE_LOOP ( 'NONE', ( #41 ) ) ;
#159 = CARTESIAN_POINT ( 'NONE',  ( 1.326762908760390423E-13, -4.653657836759941152E-15, 38.00000000000000000 ) ) ;
#160 = FACE_OUTER_BOUND ( 'NONE', #68, .T. ) ;
#161 = COORDINATED_UNIVERSAL_TIME_OFFSET ( 1, 0, .AHEAD. ) ;
#162 = UNCERTAINTY_MEASURE_WITH_UNIT (LENGTH_MEASURE( 1.000000000000000082E-05 ), #282, 'distance_accuracy_value', 'NONE');
#163 = DIRECTION ( 'NONE',  ( -3.491481338843133355E-15, 1.224646799147352961E-16, -1.000000000000000000 ) ) ;
#164 = APPROVAL_ROLE ( '' ) ;
#165 = PRODUCT ( '200042', '200042', '', ( #242 ) ) ;
#166 = CC_DESIGN_PERSON_AND_ORGANIZATION_ASSIGNMENT ( #167, #216, ( #165 ) ) ;
#167 = PERSON_AND_ORGANIZATION ( #67, #111 ) ;
#168 = AXIS2_PLACEMENT_3D ( 'NONE', #94, #190, #280 ) ;
#169 = CARTESIAN_POINT ( 'NONE',  ( 0.0000000000000000000, 0.0000000000000000000, 0.0000000000000000000 ) ) ;
#170 =( NAMED_UNIT ( * ) PLANE_ANGLE_UNIT ( ) SI_UNIT ( $, .RADIAN. ) );
#171 = CC_DESIGN_DATE_AND_TIME_ASSIGNMENT ( #240, #97, ( #261 ) ) ;
#172 = CARTESIAN_POINT ( 'NONE',  ( 0.0000000000000000000, 0.0000000000000000000, 0.0000000000000000000 ) ) ;
#173 = DIRECTION ( 'NONE',  ( -3.491481338843133355E-15, 1.224646799147352961E-16, -1.000000000000000000 ) ) ;
#174 = APPLICATION_CONTEXT ( 'configuration controlled 3d designs of mechanical parts and assemblies' ) ;
#175 = ADVANCED_FACE ( 'NONE', ( #212 ), #1, .F. ) ;
#176 = VERTEX_POINT ( 'NONE', #119 ) ;
#177 = DATE_AND_TIME ( #146, #228 ) ;
#178 = CIRCLE ( 'NONE', #101, 0.5434999999999993170 ) ;
#179 = DIRECTION ( 'NONE',  ( -3.491481338843133355E-15, 1.224646799147352961E-16, -1.000000000000000000 ) ) ;
#180 = ADVANCED_FACE ( 'NONE', ( #74, #123 ), #262, .T. ) ;
#181 = EDGE_LOOP ( 'NONE', ( #210 ) ) ;
#182 = PLANE ( 'NONE',  #281 ) ;
#183 = ORIENTED_EDGE ( 'NONE', *, *, #265, .F. ) ;
#184 = CARTESIAN_POINT ( 'NONE',  ( -2.653119194962064292E-31, 9.305889433575666963E-33, -7.598835386704795547E-17 ) ) ;
#185 = CONICAL_SURFACE ( 'NONE', #110, 0.5434999999999993170, 0.5235987755982928205 ) ;
#186 = FACE_BOUND ( 'NONE', #16, .T. ) ;
#187 = ORIENTED_EDGE ( 'NONE', *, *, #64, .F. ) ;
#188 = DIRECTION ( 'NONE',  ( -3.491481338843133355E-15, 1.224646799147352961E-16, -1.000000000000000000 ) ) ;
#189 = PERSON_AND_ORGANIZATION ( #67, #111 ) ;
#190 = DIRECTION ( 'NONE',  ( 3.491481338843133355E-15, -1.224646799147352961E-16, 1.000000000000000000 ) ) ;
#191 = APPROVAL_STATUS ( 'not_yet_approved' ) ;
#192 = APPROVAL_STATUS ( 'not_yet_approved' ) ;
#193 = VERTEX_POINT ( 'NONE', #141 ) ;
#194 = PERSON_AND_ORGANIZATION ( #67, #111 ) ;
#195 = AXIS2_PLACEMENT_3D ( 'NONE', #26, #3, #19 ) ;
#196 = DIRECTION ( 'NONE',  ( -3.491481338843133355E-15, 1.224646799147352961E-16, -1.000000000000000000 ) ) ;
#197 = CARTESIAN_POINT ( 'NONE',  ( 1.745740669421566678E-14, 0.5434999999999993170, 5.000000000000000000 ) ) ;
#198 = FACE_OUTER_BOUND ( 'NONE', #294, .T. ) ;
#199 = APPROVAL ( #192, 'UNSPECIFIED' ) ;
#200 = CC_DESIGN_SECURITY_CLASSIFICATION ( #261, ( #238 ) ) ;
#201 = ORIENTED_EDGE ( 'NONE', *, *, #45, .F. ) ;
#202 = CYLINDRICAL_SURFACE ( 'NONE', #87, 1.500000000000000444 ) ;
#203 = ORIENTED_EDGE ( 'NONE', *, *, #221, .F. ) ;
#204 = DIRECTION ( 'NONE',  ( -3.491481338843133355E-15, 1.224646799147352961E-16, -1.000000000000000000 ) ) ;
#205 = ORIENTED_EDGE ( 'NONE', *, *, #64, .T. ) ;
#206 = CARTESIAN_POINT ( 'NONE',  ( 1.790189229004846433E-14, -6.279138555829329837E-16, 5.127305734356315980 ) ) ;
#207 = ADVANCED_FACE ( 'NONE', ( #149, #144 ), #39, .F. ) ;
#208 = CLOSED_SHELL ( 'NONE', ( #175, #151, #180, #207, #89, #285, #32, #296 ) ) ;
#209 = CARTESIAN_POINT ( 'NONE',  ( 1.316288464743861212E-13, -4.616918432785520292E-15, 37.69999999999999574 ) ) ;
#210 = ORIENTED_EDGE ( 'NONE', *, *, #266, .T. ) ;
#211 = DIRECTION ( 'NONE',  ( 0.0000000000000000000, 0.0000000000000000000, 1.000000000000000000 ) ) ;
#212 = FACE_OUTER_BOUND ( 'NONE', #181, .T. ) ;
#213 = CARTESIAN_POINT ( 'NONE',  ( 1.745740669421566678E-14, -6.123233995736765296E-16, 5.000000000000000000 ) ) ;
#214 = AXIS2_PLACEMENT_3D ( 'NONE', #159, #51, #278 ) ;
#215 = LOCAL_TIME ( 15, 49, 28.00000000000000000, #303 ) ;
#216 = PERSON_AND_ORGANIZATION_ROLE ( 'design_owner' ) ;
#217 = APPROVAL_DATE_TIME ( #99, #112 ) ;
#218 = CARTESIAN_POINT ( 'NONE',  ( 5.941243467912842197E-14, 1.499999999999995559, 17.01639760125830136 ) ) ;
#219 = CC_DESIGN_APPROVAL ( #112, ( #230 ) ) ;
#220 = CARTESIAN_POINT ( 'NONE',  ( 8.728703347107831416E-16, -3.061616997868381785E-17, 0.2499999999999999445 ) ) ;
#221 = EDGE_CURVE ( 'NONE', #269, #269, #107, .T. ) ;
#222 = DIRECTION ( 'NONE',  ( 4.275831445896957731E-31, 1.000000000000000000, 1.224646799147353207E-16 ) ) ;
#223 = FACE_OUTER_BOUND ( 'NONE', #40, .T. ) ;
#224 = CIRCLE ( 'NONE', #152, 0.5434999999999999831 ) ;
#225 = EDGE_LOOP ( 'NONE', ( #183 ) ) ;
#226 = PRODUCT_RELATED_PRODUCT_CATEGORY ( 'detail', '', ( #165 ) ) ;
#227 = CONICAL_SURFACE ( 'NONE', #250, 0.4699999999999993072, 0.5235987755982919323 ) ;
#228 = LOCAL_TIME ( 15, 49, 28.00000000000000000, #12 ) ;
#229 = EDGE_LOOP ( 'NONE', ( #239 ) ) ;
#230 = PRODUCT_DEFINITION ( 'UNKNOWN', '', #238, #50 ) ;
#231 = FACE_BOUND ( 'NONE', #86, .T. ) ;
#232 = ORIENTED_EDGE ( 'NONE', *, *, #125, .T. ) ;
#233 = FACE_OUTER_BOUND ( 'NONE', #134, .T. ) ;
#234 = ADVANCED_FACE ( 'NONE', ( #108 ), #14, .F. ) ;
#235 = EDGE_LOOP ( 'NONE', ( #131 ) ) ;
#236 = APPROVAL_ROLE ( '' ) ;
#237 = CIRCLE ( 'NONE', #253, 1.499999999999997558 ) ;
#238 = PRODUCT_DEFINITION_FORMATION_WITH_SPECIFIED_SOURCE ( 'ANY', '', #165, .NOT_KNOWN. ) ;
#239 = ORIENTED_EDGE ( 'NONE', *, *, #98, .F. ) ;
#240 = DATE_AND_TIME ( #286, #59 ) ;
#241 = FACE_OUTER_BOUND ( 'NONE', #274, .T. ) ;
#242 = MECHANICAL_CONTEXT ( 'NONE', #154, 'mechanical' ) ;
#243 = DIRECTION ( 'NONE',  ( 1.000000000000000000, 0.0000000000000000000, 0.0000000000000000000 ) ) ;
#244 = CONICAL_SURFACE ( 'NONE', #214, 1.200000000000003286, 0.7853981633974453924 ) ;
#245 = VERTEX_POINT ( 'NONE', #247 ) ;
#246 = AXIS2_PLACEMENT_3D ( 'NONE', #184, #204, #72 ) ;
#247 = CARTESIAN_POINT ( 'NONE',  ( 1.790189229004846433E-14, 0.4699999999999986411, 5.127305734356315980 ) ) ;
#248 = DIRECTION ( 'NONE',  ( 3.543569354898322512E-31, 1.000000000000000000, 9.974261016425996349E-17 ) ) ;
#249 = CARTESIAN_POINT ( 'NONE',  ( 1.745740669421566678E-14, -6.123233995736765296E-16, 5.000000000000000000 ) ) ;
#250 = AXIS2_PLACEMENT_3D ( 'NONE', #206, #90, #277 ) ;
#251 = ORIENTED_EDGE ( 'NONE', *, *, #221, .T. ) ;
#252 = MANIFOLD_SOLID_BREP ( 'Corps-Déplacer/Copier1[2]', #287 ) ;
#253 = AXIS2_PLACEMENT_3D ( 'NONE', #260, #46, #135 ) ;
#254 = ORIENTED_EDGE ( 'NONE', *, *, #45, .T. ) ;
#255 = ADVANCED_FACE ( 'NONE', ( #198 ), #128, .T. ) ;
#256 = APPROVAL_PERSON_ORGANIZATION ( #28, #30, #164 ) ;
#257 = DIRECTION ( 'NONE',  ( -3.543569354898322512E-31, -1.000000000000000000, -9.974261016425996349E-17 ) ) ;
#258 = EDGE_LOOP ( 'NONE', ( #201 ) ) ;
#259 = CARTESIAN_POINT ( 'NONE',  ( 1.790189229004846433E-14, -6.279138555829329837E-16, 5.127305734356315980 ) ) ;
#260 = CARTESIAN_POINT ( 'NONE',  ( 5.941243467912842197E-14, -2.083907685539967398E-15, 17.01639760125830136 ) ) ;
#261 = SECURITY_CLASSIFICATION ( '', '', #263 ) ;
#262 = CYLINDRICAL_SURFACE ( 'NONE', #17, 0.4699999999999995848 ) ;
#263 = SECURITY_CLASSIFICATION_LEVEL ( 'unclassified' ) ;
#264 = CONICAL_SURFACE ( 'NONE', #100, 1.499999999999997558, 0.1745329251994260367 ) ;
#265 = EDGE_CURVE ( 'NONE', #176, #176, #178, .T. ) ;
#266 = EDGE_CURVE ( 'NONE', #193, #193, #156, .T. ) ;
#267 =( NAMED_UNIT ( * ) SI_UNIT ( $, .STERADIAN. ) SOLID_ANGLE_UNIT ( ) );
#268 = VERTEX_POINT ( 'NONE', #197 ) ;
#269 = VERTEX_POINT ( 'NONE', #34 ) ;
#270 = VERTEX_POINT ( 'NONE', #36 ) ;
#271 = DIRECTION ( 'NONE',  ( -3.491481338843133355E-15, 1.224646799147352961E-16, -1.000000000000000000 ) ) ;
#272 = ORIENTED_EDGE ( 'NONE', *, *, #15, .F. ) ;
#273 = CARTESIAN_POINT ( 'NONE',  ( 3.961887347097082447E-14, -1.389643016053601920E-15, 11.34729635533384595 ) ) ;
#274 = EDGE_LOOP ( 'NONE', ( #118 ) ) ;
#275 = LOCAL_TIME ( 15, 49, 28.00000000000000000, #24 ) ;
#276 = FACE_OUTER_BOUND ( 'NONE', #158, .T. ) ;
#277 = DIRECTION ( 'NONE',  ( 0.0000000000000000000, 1.000000000000000000, 0.0000000000000000000 ) ) ;
#278 = DIRECTION ( 'NONE',  ( 0.0000000000000000000, 1.000000000000000000, 0.0000000000000000000 ) ) ;
#279 = PERSON_AND_ORGANIZATION_ROLE ( 'design_supplier' ) ;
#280 = DIRECTION ( 'NONE',  ( -4.275831445896957731E-31, -1.000000000000000000, -1.224646799147352961E-16 ) ) ;
#281 = AXIS2_PLACEMENT_3D ( 'NONE', #65, #196, #78 ) ;
#282 =( LENGTH_UNIT ( ) NAMED_UNIT ( * ) SI_UNIT ( .MILLI., .METRE. ) );
#283 = CC_DESIGN_PERSON_AND_ORGANIZATION_ASSIGNMENT ( #9, #142, ( #261 ) ) ;
#284 = CALENDAR_DATE ( 2021, 29, 11 ) ;
#285 = ADVANCED_FACE ( 'NONE', ( #104, #223 ), #202, .T. ) ;
#286 = CALENDAR_DATE ( 2021, 29, 11 ) ;
#287 = CLOSED_SHELL ( 'NONE', ( #234, #124, #122, #255 ) ) ;
#288 = AXIS2_PLACEMENT_3D ( 'NONE', #60, #179, #105 ) ;
#289 = CARTESIAN_POINT ( 'NONE',  ( 1.326762908760390423E-13, 1.199999999999998845, 38.00000000000000000 ) ) ;
#290 = SHAPE_DEFINITION_REPRESENTATION ( #76, #103 ) ;
#291 = DIRECTION ( 'NONE',  ( 0.0000000000000000000, 1.000000000000000000, 0.0000000000000000000 ) ) ;
#292 = DIRECTION ( 'NONE',  ( 3.491481338843133355E-15, -1.224646799147352961E-16, 1.000000000000000000 ) ) ;
#293 = LOCAL_TIME ( 15, 49, 28.00000000000000000, #7 ) ;
#294 = EDGE_LOOP ( 'NONE', ( #272 ) ) ;
#295 = CARTESIAN_POINT ( 'NONE',  ( 0.0000000000000000000, 0.0000000000000000000, 0.0000000000000000000 ) ) ;
#296 = ADVANCED_FACE ( 'NONE', ( #11 ), #182, .F. ) ;
#297 = ORIENTED_EDGE ( 'NONE', *, *, #15, .T. ) ;
#298 = DIRECTION ( 'NONE',  ( 0.0000000000000000000, -1.000000000000000000, 0.0000000000000000000 ) ) ;
#299 = ORIENTED_EDGE ( 'NONE', *, *, #71, .T. ) ;
#300 = FACE_OUTER_BOUND ( 'NONE', #225, .T. ) ;
#301 = EDGE_LOOP ( 'NONE', ( #299 ) ) ;
#302 = CARTESIAN_POINT ( 'NONE',  ( 5.941243467912842197E-14, -2.083907685539967398E-15, 17.01639760125830136 ) ) ;
#303 = COORDINATED_UNIVERSAL_TIME_OFFSET ( 1, 0, .AHEAD. ) ;
ENDSEC;
END-ISO-10303-21;
