ISO-10303-21;
HEADER;
FILE_DESCRIPTION (( 'STEP AP203' ),
    '1' );
FILE_NAME ('200041.step',
    '2021-11-29T14:49:27',
    ( '' ),
    ( '' ),
    'SwSTEP 2.0',
    'SolidWorks 2019',
    '' );
FILE_SCHEMA (( 'CONFIG_CONTROL_DESIGN' ));
ENDSEC;

DATA;
#1 = APPROVAL ( #144, 'UNSPECIFIED' ) ;
#2 = UNCERTAINTY_MEASURE_WITH_UNIT (LENGTH_MEASURE( 1.000000000000000082E-05 ), #158, 'distance_accuracy_value', 'NONE');
#3 = ADVANCED_FACE ( 'NONE', ( #268, #74 ), #169, .T. ) ;
#4 = EDGE_LOOP ( 'NONE', ( #29 ) ) ;
#5 = FACE_BOUND ( 'NONE', #133, .T. ) ;
#6 = DIRECTION ( 'NONE',  ( 4.275831445896957731E-31, 1.000000000000000000, 1.224646799147352961E-16 ) ) ;
#7 = EDGE_LOOP ( 'NONE', ( #10 ) ) ;
#8 = DIRECTION ( 'NONE',  ( 3.491481338843133355E-15, -1.224646799147352961E-16, 1.000000000000000000 ) ) ;
#9 = MANIFOLD_SOLID_BREP ( 'Corps-Déplacer/Copier1[2]', #236 ) ;
#10 = ORIENTED_EDGE ( 'NONE', *, *, #143, .T. ) ;
#11 = DIRECTION ( 'NONE',  ( 4.275831445896957731E-31, 1.000000000000000000, 1.224646799147352961E-16 ) ) ;
#12 = DIRECTION ( 'NONE',  ( -3.491481338843133355E-15, 1.224646799147352961E-16, -1.000000000000000000 ) ) ;
#13 = AXIS2_PLACEMENT_3D ( 'NONE', #53, #148, #240 ) ;
#14 = ORIENTED_EDGE ( 'NONE', *, *, #37, .T. ) ;
#15 = ADVANCED_FACE ( 'NONE', ( #78, #174 ), #119, .T. ) ;
#16 = CARTESIAN_POINT ( 'NONE',  ( 0.0000000000000000000, 0.0000000000000000000, 0.0000000000000000000 ) ) ;
#17 = DIRECTION ( 'NONE',  ( -4.275831445896957731E-31, -1.000000000000000000, -1.224646799147352961E-16 ) ) ;
#18 = SHAPE_DEFINITION_REPRESENTATION ( #222, #47 ) ;
#19 = CARTESIAN_POINT ( 'NONE',  ( 0.0000000000000000000, 0.0000000000000000000, 0.0000000000000000000 ) ) ;
#20 = PRODUCT ( '200041', '200041', '', ( #165 ) ) ;
#21 = PERSON_AND_ORGANIZATION ( #173, #26 ) ;
#22 = PERSON_AND_ORGANIZATION_ROLE ( 'classification_officer' ) ;
#23 = PERSON_AND_ORGANIZATION ( #173, #26 ) ;
#24 = APPROVAL_DATE_TIME ( #140, #1 ) ;
#25 = CIRCLE ( 'NONE', #251, 0.5284999999999993037 ) ;
#26 = ORGANIZATION ( 'UNSPECIFIED', 'UNSPECIFIED', '' ) ;
#27 = EDGE_CURVE ( 'NONE', #58, #58, #25, .T. ) ;
#28 = CIRCLE ( 'NONE', #49, 0.4649999999999993028 ) ;
#29 = ORIENTED_EDGE ( 'NONE', *, *, #189, .T. ) ;
#30 = DIRECTION ( 'NONE',  ( -3.491481338843133355E-15, 1.224646799147352961E-16, -1.000000000000000000 ) ) ;
#31 = FACE_OUTER_BOUND ( 'NONE', #223, .T. ) ;
#32 = EDGE_LOOP ( 'NONE', ( #180 ) ) ;
#33 = DIRECTION ( 'NONE',  ( -3.491481338843133355E-15, 1.224646799147352961E-16, -1.000000000000000000 ) ) ;
#34 = FACE_BOUND ( 'NONE', #153, .T. ) ;
#35 = DIRECTION ( 'NONE',  ( 0.0000000000000000000, -1.000000000000000000, 0.0000000000000000000 ) ) ;
#36 = VERTEX_POINT ( 'NONE', #129 ) ;
#37 = EDGE_CURVE ( 'NONE', #281, #281, #101, .T. ) ;
#38 = EDGE_LOOP ( 'NONE', ( #59 ) ) ;
#39 = DIRECTION ( 'NONE',  ( -4.275831445896957731E-31, -1.000000000000000000, -1.224646799147352961E-16 ) ) ;
#40 = CARTESIAN_POINT ( 'NONE',  ( 1.326762908760390423E-13, 1.199999999999998845, 38.00000000000000000 ) ) ;
#41 = APPROVAL_DATE_TIME ( #298, #270 ) ;
#42 = APPROVAL_ROLE ( '' ) ;
#43 = CALENDAR_DATE ( 2021, 29, 11 ) ;
#44 = COORDINATED_UNIVERSAL_TIME_OFFSET ( 1, 0, .AHEAD. ) ;
#45 = AXIS2_PLACEMENT_3D ( 'NONE', #86, #98, #286 ) ;
#46 = APPLICATION_PROTOCOL_DEFINITION ( 'international standard', 'config_control_design', 1994, #51 ) ;
#47 = ADVANCED_BREP_SHAPE_REPRESENTATION ( '200041', ( #115, #9, #137 ), #190 ) ;
#48 = ADVANCED_FACE ( 'NONE', ( #182, #243 ), #220, .T. ) ;
#49 = AXIS2_PLACEMENT_3D ( 'NONE', #289, #12, #250 ) ;
#50 = CC_DESIGN_PERSON_AND_ORGANIZATION_ASSIGNMENT ( #23, #22, ( #64 ) ) ;
#51 = APPLICATION_CONTEXT ( 'configuration controlled 3d designs of mechanical parts and assemblies' ) ;
#52 = ORIENTED_EDGE ( 'NONE', *, *, #209, .T. ) ;
#53 = CARTESIAN_POINT ( 'NONE',  ( 3.840629472727446691E-14, -1.301042606982605321E-15, 11.00000000000000000 ) ) ;
#54 = VERTEX_POINT ( 'NONE', #244 ) ;
#55 = EDGE_LOOP ( 'NONE', ( #104 ) ) ;
#56 = AXIS2_PLACEMENT_3D ( 'NONE', #285, #261, #175 ) ;
#57 = FACE_OUTER_BOUND ( 'NONE', #219, .T. ) ;
#58 = VERTEX_POINT ( 'NONE', #126 ) ;
#59 = ORIENTED_EDGE ( 'NONE', *, *, #189, .F. ) ;
#60 = DIRECTION ( 'NONE',  ( -3.491481338843133355E-15, 1.224646799147352961E-16, -1.000000000000000000 ) ) ;
#61 = VERTEX_POINT ( 'NONE', #135 ) ;
#62 = CC_DESIGN_PERSON_AND_ORGANIZATION_ASSIGNMENT ( #213, #210, ( #83 ) ) ;
#63 = EDGE_LOOP ( 'NONE', ( #176 ) ) ;
#64 = SECURITY_CLASSIFICATION ( '', '', #272 ) ;
#65 = PLANE ( 'NONE',  #277 ) ;
#66 = VERTEX_POINT ( 'NONE', #102 ) ;
#67 = ORIENTED_EDGE ( 'NONE', *, *, #27, .T. ) ;
#68 = COORDINATED_UNIVERSAL_TIME_OFFSET ( 1, 0, .AHEAD. ) ;
#69 = APPROVAL_PERSON_ORGANIZATION ( #114, #1, #42 ) ;
#70 = ADVANCED_FACE ( 'NONE', ( #203, #57 ), #228, .T. ) ;
#71 = DATE_TIME_ROLE ( 'creation_date' ) ;
#72 = AXIS2_PLACEMENT_3D ( 'NONE', #269, #170, #128 ) ;
#73 = LOCAL_TIME ( 15, 49, 27.00000000000000000, #142 ) ;
#74 = FACE_OUTER_BOUND ( 'NONE', #260, .T. ) ;
#75 = DIRECTION ( 'NONE',  ( 0.0000000000000000000, 1.000000000000000000, 0.0000000000000000000 ) ) ;
#76 = VERTEX_POINT ( 'NONE', #40 ) ;
#77 = AXIS2_PLACEMENT_3D ( 'NONE', #80, #262, #17 ) ;
#78 = FACE_OUTER_BOUND ( 'NONE', #200, .T. ) ;
#79 = CYLINDRICAL_SURFACE ( 'NONE', #238, 0.5284999999999996367 ) ;
#80 = CARTESIAN_POINT ( 'NONE',  ( 1.745740669421566678E-14, 3.963115225683948794E-33, 5.000000000000000000 ) ) ;
#81 = AXIS2_PLACEMENT_3D ( 'NONE', #108, #134, #111 ) ;
#82 = FACE_OUTER_BOUND ( 'NONE', #4, .T. ) ;
#83 = PRODUCT_DEFINITION ( 'UNKNOWN', '', #194, #168 ) ;
#84 = FACE_OUTER_BOUND ( 'NONE', #38, .T. ) ;
#85 = DIRECTION ( 'NONE',  ( -3.491481338843133355E-15, 1.224646799147352961E-16, -1.000000000000000000 ) ) ;
#86 = CARTESIAN_POINT ( 'NONE',  ( 3.961887347097082447E-14, -1.389643016053601920E-15, 11.34729635533384595 ) ) ;
#87 = ORIENTED_EDGE ( 'NONE', *, *, #267, .T. ) ;
#88 = DIRECTION ( 'NONE',  ( 4.275831445896957731E-31, 1.000000000000000000, 1.224646799147352961E-16 ) ) ;
#89 = PERSON_AND_ORGANIZATION_ROLE ( 'design_owner' ) ;
#90 = AXIS2_PLACEMENT_3D ( 'NONE', #105, #60, #100 ) ;
#91 = APPROVAL_STATUS ( 'not_yet_approved' ) ;
#92 = CIRCLE ( 'NONE', #130, 0.3841624327025950358 ) ;
#93 = COORDINATED_UNIVERSAL_TIME_OFFSET ( 1, 0, .AHEAD. ) ;
#94 = ADVANCED_FACE ( 'NONE', ( #151 ), #65, .F. ) ;
#95 = DIRECTION ( 'NONE',  ( 0.0000000000000000000, 0.0000000000000000000, 1.000000000000000000 ) ) ;
#96 = CIRCLE ( 'NONE', #263, 0.4650000000000001910 ) ;
#97 = CC_DESIGN_APPROVAL ( #270, ( #64 ) ) ;
#98 = DIRECTION ( 'NONE',  ( -3.491481338843133355E-15, 1.224646799147352961E-16, -1.000000000000000000 ) ) ;
#99 = DIRECTION ( 'NONE',  ( -3.491481338843133355E-15, 1.224646799147352961E-16, -1.000000000000000000 ) ) ;
#100 = DIRECTION ( 'NONE',  ( 0.0000000000000000000, 1.000000000000000000, 0.0000000000000000000 ) ) ;
#101 = CIRCLE ( 'NONE', #90, 0.5284999999999999698 ) ;
#102 = CARTESIAN_POINT ( 'NONE',  ( 3.840629472727446691E-14, 0.4649999999999988587, 11.00000000000000000 ) ) ;
#103 = CONICAL_SURFACE ( 'NONE', #215, 0.5284999999999993037, 0.5235987755982924874 ) ;
#104 = ORIENTED_EDGE ( 'NONE', *, *, #202, .F. ) ;
#105 = CARTESIAN_POINT ( 'NONE',  ( 1.745740669421566678E-14, -6.123233995736765296E-16, 5.000000000000000000 ) ) ;
#106 = EDGE_LOOP ( 'NONE', ( #14 ) ) ;
#107 = CIRCLE ( 'NONE', #81, 1.500000000000003331 ) ;
#108 = CARTESIAN_POINT ( 'NONE',  ( 1.316288464743861212E-13, -4.616918432785520292E-15, 37.69999999999999574 ) ) ;
#109 = ORIENTED_EDGE ( 'NONE', *, *, #235, .T. ) ;
#110 = CC_DESIGN_DATE_AND_TIME_ASSIGNMENT ( #186, #231, ( #64 ) ) ;
#111 = DIRECTION ( 'NONE',  ( 0.0000000000000000000, 1.000000000000000000, 0.0000000000000000000 ) ) ;
#112 = VERTEX_POINT ( 'NONE', #218 ) ;
#113 = APPROVAL_DATE_TIME ( #278, #224 ) ;
#114 = PERSON_AND_ORGANIZATION ( #173, #26 ) ;
#115 = MANIFOLD_SOLID_BREP ( 'Corps-Déplacer/Copier1[1]', #214 ) ;
#116 = CC_DESIGN_DATE_AND_TIME_ASSIGNMENT ( #233, #71, ( #83 ) ) ;
#117 = CALENDAR_DATE ( 2021, 29, 11 ) ;
#118 = PERSON_AND_ORGANIZATION ( #173, #26 ) ;
#119 = CONICAL_SURFACE ( 'NONE', #283, 1.200000000000003286, 0.7853981633974453924 ) ;
#120 = LOCAL_TIME ( 15, 49, 27.00000000000000000, #93 ) ;
#121 = AXIS2_PLACEMENT_3D ( 'NONE', #294, #8, #35 ) ;
#122 = EDGE_CURVE ( 'NONE', #76, #76, #201, .T. ) ;
#123 = CARTESIAN_POINT ( 'NONE',  ( 0.0000000000000000000, 0.0000000000000000000, 0.0000000000000000000 ) ) ;
#124 = ADVANCED_FACE ( 'NONE', ( #265 ), #198, .F. ) ;
#125 = DIRECTION ( 'NONE',  ( 0.0000000000000000000, 1.000000000000000000, 0.0000000000000000000 ) ) ;
#126 = CARTESIAN_POINT ( 'NONE',  ( 8.728703347107833388E-16, 0.5284999999999993037, 0.2500000000000000000 ) ) ;
#127 = EDGE_LOOP ( 'NONE', ( #291 ) ) ;
#128 = DIRECTION ( 'NONE',  ( 4.275831445896957731E-31, 1.000000000000000000, 1.224646799147353207E-16 ) ) ;
#129 = CARTESIAN_POINT ( 'NONE',  ( 1.745740669421566678E-14, 0.5284999999999993037, 5.000000000000000000 ) ) ;
#130 = AXIS2_PLACEMENT_3D ( 'NONE', #171, #204, #6 ) ;
#131 = DIRECTION ( 'NONE',  ( -3.491481338843133355E-15, 1.224646799147352961E-16, -1.000000000000000000 ) ) ;
#132 = DIRECTION ( 'NONE',  ( 3.491481338843133355E-15, -1.224646799147352961E-16, 1.000000000000000000 ) ) ;
#133 = EDGE_LOOP ( 'NONE', ( #227 ) ) ;
#134 = DIRECTION ( 'NONE',  ( -3.491481338843133355E-15, 1.224646799147352961E-16, -1.000000000000000000 ) ) ;
#135 = CARTESIAN_POINT ( 'NONE',  ( -1.892735826383161575E-31, 0.3841624327025950358, -5.421010862427522170E-17 ) ) ;
#136 = COORDINATED_UNIVERSAL_TIME_OFFSET ( 1, 0, .AHEAD. ) ;
#137 = AXIS2_PLACEMENT_3D ( 'NONE', #19, #95, #163 ) ;
#138 = CALENDAR_DATE ( 2021, 29, 11 ) ;
#139 = CIRCLE ( 'NONE', #45, 0.4953844939755816523 ) ;
#140 = DATE_AND_TIME ( #138, #160 ) ;
#141 = ADVANCED_FACE ( 'NONE', ( #195, #82 ), #79, .T. ) ;
#142 = COORDINATED_UNIVERSAL_TIME_OFFSET ( 1, 0, .AHEAD. ) ;
#143 = EDGE_CURVE ( 'NONE', #258, #258, #107, .T. ) ;
#144 = APPROVAL_STATUS ( 'not_yet_approved' ) ;
#145 = ADVANCED_FACE ( 'NONE', ( #292, #206 ), #177, .F. ) ;
#146 = AXIS2_PLACEMENT_3D ( 'NONE', #178, #246, #157 ) ;
#147 = EDGE_LOOP ( 'NONE', ( #109 ) ) ;
#148 = DIRECTION ( 'NONE',  ( -3.491481338843133355E-15, 1.224646799147352961E-16, -1.000000000000000000 ) ) ;
#149 = DIRECTION ( 'NONE',  ( -3.491481338843133355E-15, 1.224646799147352961E-16, -1.000000000000000000 ) ) ;
#150 = ORIENTED_EDGE ( 'NONE', *, *, #122, .F. ) ;
#151 = FACE_OUTER_BOUND ( 'NONE', #156, .T. ) ;
#152 = VERTEX_POINT ( 'NONE', #207 ) ;
#153 = EDGE_LOOP ( 'NONE', ( #205 ) ) ;
#154 = CARTESIAN_POINT ( 'NONE',  ( 1.326762908760390423E-13, 8.998558695971099120E-33, 38.00000000000000000 ) ) ;
#155 = DIRECTION ( 'NONE',  ( 0.0000000000000000000, 1.000000000000000000, 0.0000000000000000000 ) ) ;
#156 = EDGE_LOOP ( 'NONE', ( #150 ) ) ;
#157 = DIRECTION ( 'NONE',  ( 0.0000000000000000000, 1.000000000000000000, 0.0000000000000000000 ) ) ;
#158 =( LENGTH_UNIT ( ) NAMED_UNIT ( * ) SI_UNIT ( .MILLI., .METRE. ) );
#159 = AXIS2_PLACEMENT_3D ( 'NONE', #123, #99, #282 ) ;
#160 = LOCAL_TIME ( 15, 49, 27.00000000000000000, #44 ) ;
#161 = PERSON_AND_ORGANIZATION ( #173, #26 ) ;
#162 = AXIS2_PLACEMENT_3D ( 'NONE', #221, #149, #192 ) ;
#163 = DIRECTION ( 'NONE',  ( 1.000000000000000000, 0.0000000000000000000, 0.0000000000000000000 ) ) ;
#164 = EDGE_CURVE ( 'NONE', #54, #54, #216, .T. ) ;
#165 = MECHANICAL_CONTEXT ( 'NONE', #301, 'mechanical' ) ;
#166 = APPROVAL_PERSON_ORGANIZATION ( #161, #224, #208 ) ;
#167 = CC_DESIGN_PERSON_AND_ORGANIZATION_ASSIGNMENT ( #118, #300, ( #194 ) ) ;
#168 = DESIGN_CONTEXT ( 'detailed design', #51, 'design' ) ;
#169 = CYLINDRICAL_SURFACE ( 'NONE', #159, 0.4649999999999997469 ) ;
#170 = DIRECTION ( 'NONE',  ( -3.491481338843133355E-15, 1.224646799147352961E-16, -1.000000000000000000 ) ) ;
#171 = CARTESIAN_POINT ( 'NONE',  ( -3.535349636465191156E-31, 1.240033726658383771E-32, -1.012564379804645652E-16 ) ) ;
#172 = EDGE_LOOP ( 'NONE', ( #242 ) ) ;
#173 = PERSON ( 'UNSPECIFIED', 'UNSPECIFIED', 'UNSPECIFIED', ('UNSPECIFIED'), ('UNSPECIFIED'), ('UNSPECIFIED') ) ;
#174 = FACE_BOUND ( 'NONE', #172, .T. ) ;
#175 = DIRECTION ( 'NONE',  ( 0.0000000000000000000, 1.000000000000000000, 0.0000000000000000000 ) ) ;
#176 = ORIENTED_EDGE ( 'NONE', *, *, #164, .F. ) ;
#177 = TOROIDAL_SURFACE ( 'NONE', #13, 2.465000000000000302, 2.000000000000000000 ) ;
#178 = CARTESIAN_POINT ( 'NONE',  ( 1.326762908760390423E-13, -4.653657836759941152E-15, 38.00000000000000000 ) ) ;
#179 = CARTESIAN_POINT ( 'NONE',  ( 8.728703347107831416E-16, -3.061616997868381785E-17, 0.2499999999999999445 ) ) ;
#180 = ORIENTED_EDGE ( 'NONE', *, *, #37, .F. ) ;
#181 = ADVANCED_FACE ( 'NONE', ( #217, #5 ), #254, .T. ) ;
#182 = FACE_OUTER_BOUND ( 'NONE', #63, .T. ) ;
#183 = CARTESIAN_POINT ( 'NONE',  ( 3.840629472727446691E-14, -1.347111479062088207E-15, 11.00000000000000000 ) ) ;
#184 = EDGE_LOOP ( 'NONE', ( #248 ) ) ;
#185 = PERSON_AND_ORGANIZATION_ROLE ( 'design_supplier' ) ;
#186 = DATE_AND_TIME ( #253, #211 ) ;
#187 = PRODUCT_RELATED_PRODUCT_CATEGORY ( 'detail', '', ( #20 ) ) ;
#188 = APPROVAL_STATUS ( 'not_yet_approved' ) ;
#189 = EDGE_CURVE ( 'NONE', #36, #36, #290, .T. ) ;
#190 =( GEOMETRIC_REPRESENTATION_CONTEXT ( 3 ) GLOBAL_UNCERTAINTY_ASSIGNED_CONTEXT ( ( #2 ) ) GLOBAL_UNIT_ASSIGNED_CONTEXT ( ( #158, #234, #274 ) ) REPRESENTATION_CONTEXT ( 'NONE', 'WORKASPACE' ) );
#191 = DIRECTION ( 'NONE',  ( 3.644143697989097973E-31, 1.000000000000000000, 1.025735262521765184E-16 ) ) ;
#192 = DIRECTION ( 'NONE',  ( 0.0000000000000000000, 1.000000000000000000, 0.0000000000000000000 ) ) ;
#193 = EDGE_LOOP ( 'NONE', ( #197 ) ) ;
#194 = PRODUCT_DEFINITION_FORMATION_WITH_SPECIFIED_SOURCE ( 'ANY', '', #20, .NOT_KNOWN. ) ;
#195 = FACE_OUTER_BOUND ( 'NONE', #184, .T. ) ;
#196 = DIRECTION ( 'NONE',  ( -4.275831445896957731E-31, -1.000000000000000000, -1.224646799147352961E-16 ) ) ;
#197 = ORIENTED_EDGE ( 'NONE', *, *, #209, .F. ) ;
#198 = PLANE ( 'NONE',  #303 ) ;
#199 = CARTESIAN_POINT ( 'NONE',  ( 1.745740669421566678E-14, 0.5284999999999993037, 5.000000000000000000 ) ) ;
#200 = EDGE_LOOP ( 'NONE', ( #264 ) ) ;
#201 = CIRCLE ( 'NONE', #146, 1.200000000000003286 ) ;
#202 = EDGE_CURVE ( 'NONE', #112, #112, #28, .T. ) ;
#203 = FACE_BOUND ( 'NONE', #127, .T. ) ;
#204 = DIRECTION ( 'NONE',  ( -3.491481338843133355E-15, 1.224646799147352961E-16, -1.000000000000000000 ) ) ;
#205 = ORIENTED_EDGE ( 'NONE', *, *, #267, .F. ) ;
#206 = FACE_OUTER_BOUND ( 'NONE', #147, .T. ) ;
#207 = CARTESIAN_POINT ( 'NONE',  ( 3.961887347097082447E-14, 0.4953844939755802645, 11.34729635533384595 ) ) ;
#208 = APPROVAL_ROLE ( '' ) ;
#209 = EDGE_CURVE ( 'NONE', #66, #66, #96, .T. ) ;
#210 = PERSON_AND_ORGANIZATION_ROLE ( 'creator' ) ;
#211 = LOCAL_TIME ( 15, 49, 27.00000000000000000, #68 ) ;
#212 = APPLICATION_PROTOCOL_DEFINITION ( 'international standard', 'config_control_design', 1994, #301 ) ;
#213 = PERSON_AND_ORGANIZATION ( #173, #26 ) ;
#214 = CLOSED_SHELL ( 'NONE', ( #124, #181, #3, #145, #70, #48, #15, #94 ) ) ;
#215 = AXIS2_PLACEMENT_3D ( 'NONE', #179, #266, #293 ) ;
#216 = CIRCLE ( 'NONE', #232, 1.499999999999997558 ) ;
#217 = FACE_OUTER_BOUND ( 'NONE', #32, .T. ) ;
#218 = CARTESIAN_POINT ( 'NONE',  ( 1.784141805932291109E-14, 0.4649999999999986922, 5.109985226280626236 ) ) ;
#219 = EDGE_LOOP ( 'NONE', ( #239 ) ) ;
#220 = CYLINDRICAL_SURFACE ( 'NONE', #72, 1.500000000000000444 ) ;
#221 = CARTESIAN_POINT ( 'NONE',  ( 1.745740669421566678E-14, -6.123233995736765296E-16, 5.000000000000000000 ) ) ;
#222 = PRODUCT_DEFINITION_SHAPE ( 'NONE', 'NONE',  #83 ) ;
#223 = EDGE_LOOP ( 'NONE', ( #67 ) ) ;
#224 = APPROVAL ( #188, 'UNSPECIFIED' ) ;
#225 = CARTESIAN_POINT ( 'NONE',  ( 1.326762908760390423E-13, -4.653657836759941152E-15, 38.00000000000000000 ) ) ;
#226 = CARTESIAN_POINT ( 'NONE',  ( 1.316288464743861212E-13, 1.499999999999998668, 37.69999999999999574 ) ) ;
#227 = ORIENTED_EDGE ( 'NONE', *, *, #202, .T. ) ;
#228 = CONICAL_SURFACE ( 'NONE', #121, 1.499999999999997558, 0.1745329251994260367 ) ;
#229 = CARTESIAN_POINT ( 'NONE',  ( 1.745740669421566678E-14, 3.963115225683948794E-33, 5.000000000000000000 ) ) ;
#230 = PLANE ( 'NONE',  #77 ) ;
#231 = DATE_TIME_ROLE ( 'classification_date' ) ;
#232 = AXIS2_PLACEMENT_3D ( 'NONE', #280, #30, #125 ) ;
#233 = DATE_AND_TIME ( #117, #120 ) ;
#234 =( NAMED_UNIT ( * ) PLANE_ANGLE_UNIT ( ) SI_UNIT ( $, .RADIAN. ) );
#235 = EDGE_CURVE ( 'NONE', #152, #152, #139, .T. ) ;
#236 = CLOSED_SHELL ( 'NONE', ( #259, #279, #141, #302 ) ) ;
#237 = CC_DESIGN_SECURITY_CLASSIFICATION ( #64, ( #194 ) ) ;
#238 = AXIS2_PLACEMENT_3D ( 'NONE', #16, #131, #88 ) ;
#239 = ORIENTED_EDGE ( 'NONE', *, *, #164, .T. ) ;
#240 = DIRECTION ( 'NONE',  ( 4.275831445896957731E-31, 1.000000000000000000, 1.224646799147352961E-16 ) ) ;
#241 = CARTESIAN_POINT ( 'NONE',  ( -1.767674818232595578E-31, 6.200168633291918855E-33, -5.062821899023228261E-17 ) ) ;
#242 = ORIENTED_EDGE ( 'NONE', *, *, #122, .T. ) ;
#243 = FACE_OUTER_BOUND ( 'NONE', #7, .T. ) ;
#244 = CARTESIAN_POINT ( 'NONE',  ( 5.951144055233100630E-14, 1.499999999999995559, 17.04475401035639237 ) ) ;
#245 = CC_DESIGN_PERSON_AND_ORGANIZATION_ASSIGNMENT ( #296, #185, ( #194 ) ) ;
#246 = DIRECTION ( 'NONE',  ( -3.491481338843133355E-15, 1.224646799147352961E-16, -1.000000000000000000 ) ) ;
#247 = PLANE ( 'NONE',  #252 ) ;
#248 = ORIENTED_EDGE ( 'NONE', *, *, #27, .F. ) ;
#249 = DIRECTION ( 'NONE',  ( -3.491481338843133355E-15, 1.224646799147352961E-16, -1.000000000000000000 ) ) ;
#250 = DIRECTION ( 'NONE',  ( 0.0000000000000000000, 1.000000000000000000, 0.0000000000000000000 ) ) ;
#251 = AXIS2_PLACEMENT_3D ( 'NONE', #257, #249, #191 ) ;
#252 = AXIS2_PLACEMENT_3D ( 'NONE', #241, #132, #196 ) ;
#253 = CALENDAR_DATE ( 2021, 29, 11 ) ;
#254 = CONICAL_SURFACE ( 'NONE', #56, 0.4649999999999993028, 0.5235987755982939307 ) ;
#255 = CALENDAR_DATE ( 2021, 29, 11 ) ;
#256 = LOCAL_TIME ( 15, 49, 27.00000000000000000, #136 ) ;
#257 = CARTESIAN_POINT ( 'NONE',  ( 8.728703347107831416E-16, -3.061616997868381785E-17, 0.2499999999999999445 ) ) ;
#258 = VERTEX_POINT ( 'NONE', #226 ) ;
#259 = ADVANCED_FACE ( 'NONE', ( #295 ), #247, .F. ) ;
#260 = EDGE_LOOP ( 'NONE', ( #52 ) ) ;
#261 = DIRECTION ( 'NONE',  ( -3.491481338843133355E-15, 1.224646799147352961E-16, -1.000000000000000000 ) ) ;
#262 = DIRECTION ( 'NONE',  ( 3.491481338843133355E-15, -1.224646799147352961E-16, 1.000000000000000000 ) ) ;
#263 = AXIS2_PLACEMENT_3D ( 'NONE', #183, #271, #155 ) ;
#264 = ORIENTED_EDGE ( 'NONE', *, *, #143, .F. ) ;
#265 = FACE_OUTER_BOUND ( 'NONE', #106, .T. ) ;
#266 = DIRECTION ( 'NONE',  ( 3.491481338843133355E-15, -1.224646799147352961E-16, 1.000000000000000000 ) ) ;
#267 = EDGE_CURVE ( 'NONE', #61, #61, #92, .T. ) ;
#268 = FACE_OUTER_BOUND ( 'NONE', #55, .T. ) ;
#269 = CARTESIAN_POINT ( 'NONE',  ( 0.0000000000000000000, 0.0000000000000000000, 0.0000000000000000000 ) ) ;
#270 = APPROVAL ( #91, 'UNSPECIFIED' ) ;
#271 = DIRECTION ( 'NONE',  ( -3.491481338843133355E-15, 1.224646799147352961E-16, -1.000000000000000000 ) ) ;
#272 = SECURITY_CLASSIFICATION_LEVEL ( 'unclassified' ) ;
#273 = APPROVAL_PERSON_ORGANIZATION ( #297, #270, #275 ) ;
#274 =( NAMED_UNIT ( * ) SI_UNIT ( $, .STERADIAN. ) SOLID_ANGLE_UNIT ( ) );
#275 = APPROVAL_ROLE ( '' ) ;
#276 = CC_DESIGN_PERSON_AND_ORGANIZATION_ASSIGNMENT ( #21, #89, ( #20 ) ) ;
#277 = AXIS2_PLACEMENT_3D ( 'NONE', #154, #33, #11 ) ;
#278 = DATE_AND_TIME ( #255, #73 ) ;
#279 = ADVANCED_FACE ( 'NONE', ( #34, #31 ), #103, .T. ) ;
#280 = CARTESIAN_POINT ( 'NONE',  ( 5.951144055233100630E-14, -2.087380344103696187E-15, 17.04475401035639237 ) ) ;
#281 = VERTEX_POINT ( 'NONE', #199 ) ;
#282 = DIRECTION ( 'NONE',  ( 4.275831445896958607E-31, 1.000000000000000000, 1.224646799147352961E-16 ) ) ;
#283 = AXIS2_PLACEMENT_3D ( 'NONE', #225, #85, #75 ) ;
#284 = CC_DESIGN_APPROVAL ( #224, ( #83 ) ) ;
#285 = CARTESIAN_POINT ( 'NONE',  ( 1.784141805932291109E-14, -6.257927051054830925E-16, 5.109985226280626236 ) ) ;
#286 = DIRECTION ( 'NONE',  ( 0.0000000000000000000, 1.000000000000000000, 0.0000000000000000000 ) ) ;
#287 = EDGE_LOOP ( 'NONE', ( #87 ) ) ;
#288 = DIRECTION ( 'NONE',  ( 3.491481338843133355E-15, -1.224646799147352961E-16, 1.000000000000000000 ) ) ;
#289 = CARTESIAN_POINT ( 'NONE',  ( 1.784141805932291109E-14, -6.257927051054830925E-16, 5.109985226280626236 ) ) ;
#290 = CIRCLE ( 'NONE', #162, 0.5284999999999999698 ) ;
#291 = ORIENTED_EDGE ( 'NONE', *, *, #235, .F. ) ;
#292 = FACE_OUTER_BOUND ( 'NONE', #193, .T. ) ;
#293 = DIRECTION ( 'NONE',  ( -3.644143697989097973E-31, -1.000000000000000000, -1.025735262521765184E-16 ) ) ;
#294 = CARTESIAN_POINT ( 'NONE',  ( 5.951144055233100630E-14, -2.087380344103696187E-15, 17.04475401035639237 ) ) ;
#295 = FACE_OUTER_BOUND ( 'NONE', #287, .T. ) ;
#296 = PERSON_AND_ORGANIZATION ( #173, #26 ) ;
#297 = PERSON_AND_ORGANIZATION ( #173, #26 ) ;
#298 = DATE_AND_TIME ( #43, #256 ) ;
#299 = CC_DESIGN_APPROVAL ( #1, ( #194 ) ) ;
#300 = PERSON_AND_ORGANIZATION_ROLE ( 'creator' ) ;
#301 = APPLICATION_CONTEXT ( 'configuration controlled 3d designs of mechanical parts and assemblies' ) ;
#302 = ADVANCED_FACE ( 'NONE', ( #84 ), #230, .T. ) ;
#303 = AXIS2_PLACEMENT_3D ( 'NONE', #229, #288, #39 ) ;
ENDSEC;
END-ISO-10303-21;
