ISO-10303-21;
HEADER;
FILE_DESCRIPTION (( 'STEP AP203' ),
    '1' );
FILE_NAME ('200040.step',
    '2021-11-29T14:49:27',
    ( '' ),
    ( '' ),
    'SwSTEP 2.0',
    'SolidWorks 2019',
    '' );
FILE_SCHEMA (( 'CONFIG_CONTROL_DESIGN' ));
ENDSEC;

DATA;
#1 = EDGE_LOOP ( 'NONE', ( #104 ) ) ;
#2 = CC_DESIGN_DATE_AND_TIME_ASSIGNMENT ( #81, #159, ( #241 ) ) ;
#3 = CIRCLE ( 'NONE', #39, 0.4903844939755814258 ) ;
#4 = CARTESIAN_POINT ( 'NONE',  ( 1.326762908760390423E-13, 8.998558695971099120E-33, 38.00000000000000000 ) ) ;
#5 = DIRECTION ( 'NONE',  ( -4.275831445896957731E-31, -1.000000000000000000, -1.224646799147352961E-16 ) ) ;
#6 = AXIS2_PLACEMENT_3D ( 'NONE', #4, #95, #169 ) ;
#7 = ADVANCED_FACE ( 'NONE', ( #292, #101 ), #206, .T. ) ;
#8 = CARTESIAN_POINT ( 'NONE',  ( 3.840629472727446691E-14, 0.4599999999999986322, 11.00000000000000000 ) ) ;
#9 = DIRECTION ( 'NONE',  ( -3.491481338843133355E-15, 1.224646799147352961E-16, -1.000000000000000000 ) ) ;
#10 = ORIENTED_EDGE ( 'NONE', *, *, #239, .T. ) ;
#11 = CONICAL_SURFACE ( 'NONE', #190, 0.5134999999999992903, 0.5235987755982922653 ) ;
#12 = EDGE_LOOP ( 'NONE', ( #155 ) ) ;
#13 = DATE_AND_TIME ( #252, #102 ) ;
#14 = EDGE_LOOP ( 'NONE', ( #237 ) ) ;
#15 = FACE_BOUND ( 'NONE', #247, .T. ) ;
#16 = VERTEX_POINT ( 'NONE', #8 ) ;
#17 = DIRECTION ( 'NONE',  ( -3.491481338843133355E-15, 1.224646799147352961E-16, -1.000000000000000000 ) ) ;
#18 = AXIS2_PLACEMENT_3D ( 'NONE', #134, #87, #131 ) ;
#19 = PERSON_AND_ORGANIZATION ( #287, #264 ) ;
#20 = DIRECTION ( 'NONE',  ( 0.0000000000000000000, 1.000000000000000000, 0.0000000000000000000 ) ) ;
#21 = EDGE_CURVE ( 'NONE', #291, #291, #218, .T. ) ;
#22 = DIRECTION ( 'NONE',  ( -3.491481338843133355E-15, 1.224646799147352961E-16, -1.000000000000000000 ) ) ;
#23 = AXIS2_PLACEMENT_3D ( 'NONE', #167, #51, #28 ) ;
#24 = EDGE_LOOP ( 'NONE', ( #10 ) ) ;
#25 = PLANE ( 'NONE',  #23 ) ;
#26 = AXIS2_PLACEMENT_3D ( 'NONE', #256, #137, #40 ) ;
#27 = CC_DESIGN_APPROVAL ( #297, ( #212 ) ) ;
#28 = DIRECTION ( 'NONE',  ( -4.275831445896957731E-31, -1.000000000000000000, -1.224646799147352961E-16 ) ) ;
#29 = ADVANCED_FACE ( 'NONE', ( #63, #183 ), #301, .T. ) ;
#30 = ADVANCED_FACE ( 'NONE', ( #15, #157 ), #242, .T. ) ;
#31 = AXIS2_PLACEMENT_3D ( 'NONE', #302, #187, #69 ) ;
#32 = ORIENTED_EDGE ( 'NONE', *, *, #140, .T. ) ;
#33 = LOCAL_TIME ( 15, 49, 27.00000000000000000, #135 ) ;
#34 = VERTEX_POINT ( 'NONE', #154 ) ;
#35 = ORIENTED_EDGE ( 'NONE', *, *, #97, .T. ) ;
#36 = DIRECTION ( 'NONE',  ( -3.750593854697640813E-31, -1.000000000000000000, -1.055698317902147962E-16 ) ) ;
#37 = CARTESIAN_POINT ( 'NONE',  ( 1.778094382859736100E-14, -6.236715546280332012E-16, 5.092664718204936491 ) ) ;
#38 = CARTESIAN_POINT ( 'NONE',  ( 5.961044642553360326E-14, -2.090853002667425764E-15, 17.07311041945448693 ) ) ;
#39 = AXIS2_PLACEMENT_3D ( 'NONE', #160, #17, #109 ) ;
#40 = DIRECTION ( 'NONE',  ( 4.275831445896957731E-31, 1.000000000000000000, 1.224646799147352961E-16 ) ) ;
#41 = CARTESIAN_POINT ( 'NONE',  ( 1.326762908760390423E-13, -4.653657836759941152E-15, 38.00000000000000000 ) ) ;
#42 = EDGE_CURVE ( 'NONE', #53, #53, #72, .T. ) ;
#43 = EDGE_LOOP ( 'NONE', ( #227 ) ) ;
#44 = AXIS2_PLACEMENT_3D ( 'NONE', #283, #74, #73 ) ;
#45 = CC_DESIGN_PERSON_AND_ORGANIZATION_ASSIGNMENT ( #62, #202, ( #241 ) ) ;
#46 = DESIGN_CONTEXT ( 'detailed design', #49, 'design' ) ;
#47 = EDGE_LOOP ( 'NONE', ( #270 ) ) ;
#48 = APPROVAL ( #300, 'UNSPECIFIED' ) ;
#49 = APPLICATION_CONTEXT ( 'configuration controlled 3d designs of mechanical parts and assemblies' ) ;
#50 = CARTESIAN_POINT ( 'NONE',  ( 1.745740669421566678E-14, 3.850633241984308652E-33, 5.000000000000000000 ) ) ;
#51 = DIRECTION ( 'NONE',  ( 3.491481338843133355E-15, -1.224646799147352961E-16, 1.000000000000000000 ) ) ;
#52 = APPROVAL_PERSON_ORGANIZATION ( #271, #153, #298 ) ;
#53 = VERTEX_POINT ( 'NONE', #174 ) ;
#54 = VERTEX_POINT ( 'NONE', #196 ) ;
#55 = ORIENTED_EDGE ( 'NONE', *, *, #261, .T. ) ;
#56 = CALENDAR_DATE ( 2021, 29, 11 ) ;
#57 = CIRCLE ( 'NONE', #235, 1.500000000000003331 ) ;
#58 = ORIENTED_EDGE ( 'NONE', *, *, #284, .T. ) ;
#59 = COORDINATED_UNIVERSAL_TIME_OFFSET ( 1, 0, .AHEAD. ) ;
#60 = EDGE_CURVE ( 'NONE', #121, #121, #191, .T. ) ;
#61 = APPLICATION_PROTOCOL_DEFINITION ( 'international standard', 'config_control_design', 1994, #266 ) ;
#62 = PERSON_AND_ORGANIZATION ( #287, #264 ) ;
#63 = FACE_OUTER_BOUND ( 'NONE', #12, .T. ) ;
#64 = COORDINATED_UNIVERSAL_TIME_OFFSET ( 1, 0, .AHEAD. ) ;
#65 = CARTESIAN_POINT ( 'NONE',  ( 6.982962677686265724E-16, -2.449293598294705305E-17, 0.1999999999999999556 ) ) ;
#66 = FACE_OUTER_BOUND ( 'NONE', #177, .T. ) ;
#67 = CC_DESIGN_APPROVAL ( #48, ( #127 ) ) ;
#68 = CLOSED_SHELL ( 'NONE', ( #173, #7, #152, #115, #30, #172, #147, #231 ) ) ;
#69 = DIRECTION ( 'NONE',  ( 4.275831445896957731E-31, 1.000000000000000000, 1.224646799147352961E-16 ) ) ;
#70 = EDGE_LOOP ( 'NONE', ( #213 ) ) ;
#71 = EDGE_LOOP ( 'NONE', ( #55 ) ) ;
#72 = CIRCLE ( 'NONE', #290, 1.499999999999997558 ) ;
#73 = DIRECTION ( 'NONE',  ( 0.0000000000000000000, 1.000000000000000000, 0.0000000000000000000 ) ) ;
#74 = DIRECTION ( 'NONE',  ( -3.491481338843133355E-15, 1.224646799147352961E-16, -1.000000000000000000 ) ) ;
#75 = CONICAL_SURFACE ( 'NONE', #83, 1.200000000000003286, 0.7853981633974453924 ) ;
#76 = LOCAL_TIME ( 15, 49, 27.00000000000000000, #185 ) ;
#77 = VERTEX_POINT ( 'NONE', #176 ) ;
#78 = CARTESIAN_POINT ( 'NONE',  ( 1.778094382859736100E-14, -6.236715546280332012E-16, 5.092664718204936491 ) ) ;
#79 = CARTESIAN_POINT ( 'NONE',  ( 1.745740669421566678E-14, 0.5134999999999992903, 5.000000000000000000 ) ) ;
#80 = EDGE_LOOP ( 'NONE', ( #201 ) ) ;
#81 = DATE_AND_TIME ( #107, #171 ) ;
#82 = ADVANCED_FACE ( 'NONE', ( #230, #276 ), #11, .T. ) ;
#83 = AXIS2_PLACEMENT_3D ( 'NONE', #41, #278, #90 ) ;
#84 = PRODUCT ( '200040', '200040', '', ( #243 ) ) ;
#85 = CALENDAR_DATE ( 2021, 29, 11 ) ;
#86 = CARTESIAN_POINT ( 'NONE',  ( 1.326762908760390423E-13, -4.653657836759941152E-15, 38.00000000000000000 ) ) ;
#87 = DIRECTION ( 'NONE',  ( -3.491481338843133355E-15, 1.224646799147352961E-16, -1.000000000000000000 ) ) ;
#88 = AXIS2_PLACEMENT_3D ( 'NONE', #234, #186, #20 ) ;
#89 = FACE_OUTER_BOUND ( 'NONE', #24, .T. ) ;
#90 = DIRECTION ( 'NONE',  ( 0.0000000000000000000, 1.000000000000000000, 0.0000000000000000000 ) ) ;
#91 = CC_DESIGN_SECURITY_CLASSIFICATION ( #127, ( #212 ) ) ;
#92 = ORIENTED_EDGE ( 'NONE', *, *, #284, .F. ) ;
#93 = EDGE_LOOP ( 'NONE', ( #259 ) ) ;
#94 = CLOSED_SHELL ( 'NONE', ( #211, #82, #29, #226 ) ) ;
#95 = DIRECTION ( 'NONE',  ( -3.491481338843133355E-15, 1.224646799147352961E-16, -1.000000000000000000 ) ) ;
#96 = PLANE ( 'NONE',  #6 ) ;
#97 = EDGE_CURVE ( 'NONE', #34, #34, #3, .T. ) ;
#98 = AXIS2_PLACEMENT_3D ( 'NONE', #267, #99, #158 ) ;
#99 = DIRECTION ( 'NONE',  ( -3.491481338843133355E-15, 1.224646799147352961E-16, -1.000000000000000000 ) ) ;
#100 = DIRECTION ( 'NONE',  ( 1.000000000000000000, 0.0000000000000000000, 0.0000000000000000000 ) ) ;
#101 = FACE_BOUND ( 'NONE', #71, .T. ) ;
#102 = LOCAL_TIME ( 15, 49, 27.00000000000000000, #64 ) ;
#103 = PERSON_AND_ORGANIZATION ( #287, #264 ) ;
#104 = ORIENTED_EDGE ( 'NONE', *, *, #195, .F. ) ;
#105 = DATE_AND_TIME ( #85, #76 ) ;
#106 =( NAMED_UNIT ( * ) SI_UNIT ( $, .STERADIAN. ) SOLID_ANGLE_UNIT ( ) );
#107 = CALENDAR_DATE ( 2021, 29, 11 ) ;
#108 = DIRECTION ( 'NONE',  ( 0.0000000000000000000, -1.000000000000000000, 0.0000000000000000000 ) ) ;
#109 = DIRECTION ( 'NONE',  ( 0.0000000000000000000, 1.000000000000000000, 0.0000000000000000000 ) ) ;
#110 = APPROVAL_DATE_TIME ( #13, #48 ) ;
#111 = MANIFOLD_SOLID_BREP ( 'Corps-Déplacer/Copier1[1]', #68 ) ;
#112 = DIRECTION ( 'NONE',  ( 3.750593854697640813E-31, 1.000000000000000000, 1.055698317902147962E-16 ) ) ;
#113 = CIRCLE ( 'NONE', #170, 0.4599999999999994094 ) ;
#114 = FACE_OUTER_BOUND ( 'NONE', #80, .T. ) ;
#115 = ADVANCED_FACE ( 'NONE', ( #138, #280 ), #162, .F. ) ;
#116 = EDGE_LOOP ( 'NONE', ( #32 ) ) ;
#117 = EDGE_CURVE ( 'NONE', #16, #16, #144, .T. ) ;
#118 = FACE_OUTER_BOUND ( 'NONE', #93, .T. ) ;
#119 = FACE_OUTER_BOUND ( 'NONE', #149, .T. ) ;
#120 = CC_DESIGN_DATE_AND_TIME_ASSIGNMENT ( #232, #229, ( #127 ) ) ;
#121 = VERTEX_POINT ( 'NONE', #148 ) ;
#122 = DIRECTION ( 'NONE',  ( 0.0000000000000000000, 0.0000000000000000000, 1.000000000000000000 ) ) ;
#123 = AXIS2_PLACEMENT_3D ( 'NONE', #219, #263, #5 ) ;
#124 = CARTESIAN_POINT ( 'NONE',  ( 0.0000000000000000000, 0.0000000000000000000, 0.0000000000000000000 ) ) ;
#125 = ORIENTED_EDGE ( 'NONE', *, *, #21, .T. ) ;
#126 = PERSON_AND_ORGANIZATION ( #287, #264 ) ;
#127 = SECURITY_CLASSIFICATION ( '', '', #180 ) ;
#128 = DIRECTION ( 'NONE',  ( 0.0000000000000000000, 1.000000000000000000, 0.0000000000000000000 ) ) ;
#129 = EDGE_LOOP ( 'NONE', ( #35 ) ) ;
#130 = CC_DESIGN_PERSON_AND_ORGANIZATION_ASSIGNMENT ( #205, #245, ( #212 ) ) ;
#131 = DIRECTION ( 'NONE',  ( 4.275831445896957731E-31, 1.000000000000000000, 1.224646799147352961E-16 ) ) ;
#132 = VERTEX_POINT ( 'NONE', #294 ) ;
#133 = APPROVAL_STATUS ( 'not_yet_approved' ) ;
#134 = CARTESIAN_POINT ( 'NONE',  ( 0.0000000000000000000, 0.0000000000000000000, 0.0000000000000000000 ) ) ;
#135 = COORDINATED_UNIVERSAL_TIME_OFFSET ( 1, 0, .AHEAD. ) ;
#136 = AXIS2_PLACEMENT_3D ( 'NONE', #78, #175, #268 ) ;
#137 = DIRECTION ( 'NONE',  ( -3.491481338843133355E-15, 1.224646799147352961E-16, -1.000000000000000000 ) ) ;
#138 = FACE_OUTER_BOUND ( 'NONE', #282, .T. ) ;
#139 = CIRCLE ( 'NONE', #44, 0.5134999999999999565 ) ;
#140 = EDGE_CURVE ( 'NONE', #54, #54, #150, .T. ) ;
#141 = ORIENTED_EDGE ( 'NONE', *, *, #239, .F. ) ;
#142 = FACE_OUTER_BOUND ( 'NONE', #236, .T. ) ;
#143 = DIRECTION ( 'NONE',  ( -4.275831445896957731E-31, -1.000000000000000000, -1.224646799147352961E-16 ) ) ;
#144 = CIRCLE ( 'NONE', #88, 0.4599999999999999645 ) ;
#145 = AXIS2_PLACEMENT_3D ( 'NONE', #253, #250, #108 ) ;
#146 =( NAMED_UNIT ( * ) PLANE_ANGLE_UNIT ( ) SI_UNIT ( $, .RADIAN. ) );
#147 = ADVANCED_FACE ( 'NONE', ( #66, #164 ), #75, .T. ) ;
#148 = CARTESIAN_POINT ( 'NONE',  ( 1.326762908760390423E-13, 1.199999999999998845, 38.00000000000000000 ) ) ;
#149 = EDGE_LOOP ( 'NONE', ( #58 ) ) ;
#150 = CIRCLE ( 'NONE', #220, 0.5134999999999992903 ) ;
#151 = COORDINATED_UNIVERSAL_TIME_OFFSET ( 1, 0, .AHEAD. ) ;
#152 = ADVANCED_FACE ( 'NONE', ( #209, #114 ), #210, .T. ) ;
#153 = APPROVAL ( #251, 'UNSPECIFIED' ) ;
#154 = CARTESIAN_POINT ( 'NONE',  ( 3.961887347097083078E-14, 0.4903844939755800381, 11.34729635533384773 ) ) ;
#155 = ORIENTED_EDGE ( 'NONE', *, *, #140, .F. ) ;
#156 = PERSON_AND_ORGANIZATION_ROLE ( 'classification_officer' ) ;
#157 = FACE_OUTER_BOUND ( 'NONE', #43, .T. ) ;
#158 = DIRECTION ( 'NONE',  ( 0.0000000000000000000, 1.000000000000000000, 0.0000000000000000000 ) ) ;
#159 = DATE_TIME_ROLE ( 'creation_date' ) ;
#160 = CARTESIAN_POINT ( 'NONE',  ( 3.961887347097083078E-14, -1.389643016053602117E-15, 11.34729635533384773 ) ) ;
#161 = DIRECTION ( 'NONE',  ( -3.491481338843133355E-15, 1.224646799147352961E-16, -1.000000000000000000 ) ) ;
#162 = TOROIDAL_SURFACE ( 'NONE', #26, 2.459999999999999964, 2.000000000000000000 ) ;
#163 = LOCAL_TIME ( 15, 49, 27.00000000000000000, #59 ) ;
#164 = FACE_BOUND ( 'NONE', #188, .T. ) ;
#165 = FACE_OUTER_BOUND ( 'NONE', #70, .T. ) ;
#166 = UNCERTAINTY_MEASURE_WITH_UNIT (LENGTH_MEASURE( 1.000000000000000082E-05 ), #288, 'distance_accuracy_value', 'NONE');
#167 = CARTESIAN_POINT ( 'NONE',  ( -3.777705235084483394E-32, 1.325040627541004211E-33, -1.081977782054016987E-17 ) ) ;
#168 = CC_DESIGN_PERSON_AND_ORGANIZATION_ASSIGNMENT ( #274, #156, ( #127 ) ) ;
#169 = DIRECTION ( 'NONE',  ( 4.275831445896957731E-31, 1.000000000000000000, 1.224646799147352961E-16 ) ) ;
#170 = AXIS2_PLACEMENT_3D ( 'NONE', #37, #9, #221 ) ;
#171 = LOCAL_TIME ( 15, 49, 27.00000000000000000, #151 ) ;
#172 = ADVANCED_FACE ( 'NONE', ( #165, #89 ), #257, .T. ) ;
#173 = ADVANCED_FACE ( 'NONE', ( #119 ), #217, .F. ) ;
#174 = CARTESIAN_POINT ( 'NONE',  ( 5.961044642553360326E-14, 1.499999999999995559, 17.07311041945448693 ) ) ;
#175 = DIRECTION ( 'NONE',  ( -3.491481338843133355E-15, 1.224646799147352961E-16, -1.000000000000000000 ) ) ;
#176 = CARTESIAN_POINT ( 'NONE',  ( 1.778094382859736100E-14, 0.4599999999999987432, 5.092664718204936491 ) ) ;
#177 = EDGE_LOOP ( 'NONE', ( #141 ) ) ;
#178 = PERSON_AND_ORGANIZATION ( #287, #264 ) ;
#179 = APPLICATION_PROTOCOL_DEFINITION ( 'international standard', 'config_control_design', 1994, #49 ) ;
#180 = SECURITY_CLASSIFICATION_LEVEL ( 'unclassified' ) ;
#181 = DIRECTION ( 'NONE',  ( 3.491481338843133355E-15, -1.224646799147352961E-16, 1.000000000000000000 ) ) ;
#182 = DATE_AND_TIME ( #272, #163 ) ;
#183 = FACE_OUTER_BOUND ( 'NONE', #47, .T. ) ;
#184 = MANIFOLD_SOLID_BREP ( 'Corps-Déplacer/Copier1[2]', #94 ) ;
#185 = COORDINATED_UNIVERSAL_TIME_OFFSET ( 1, 0, .AHEAD. ) ;
#186 = DIRECTION ( 'NONE',  ( -3.491481338843133355E-15, 1.224646799147352961E-16, -1.000000000000000000 ) ) ;
#187 = DIRECTION ( 'NONE',  ( -3.491481338843133355E-15, 1.224646799147352961E-16, -1.000000000000000000 ) ) ;
#188 = EDGE_LOOP ( 'NONE', ( #223 ) ) ;
#189 = ORIENTED_EDGE ( 'NONE', *, *, #261, .F. ) ;
#190 = AXIS2_PLACEMENT_3D ( 'NONE', #65, #181, #36 ) ;
#191 = CIRCLE ( 'NONE', #233, 1.200000000000003286 ) ;
#192 = FACE_OUTER_BOUND ( 'NONE', #1, .T. ) ;
#193 = CARTESIAN_POINT ( 'NONE',  ( 1.316288464743861212E-13, -4.616918432785520292E-15, 37.69999999999999574 ) ) ;
#194 = AXIS2_PLACEMENT_3D ( 'NONE', #50, #260, #143 ) ;
#195 = EDGE_CURVE ( 'NONE', #225, #225, #139, .T. ) ;
#196 = CARTESIAN_POINT ( 'NONE',  ( 6.982962677686267697E-16, 0.5134999999999992903, 0.2000000000000000111 ) ) ;
#197 = ORIENTED_EDGE ( 'NONE', *, *, #117, .F. ) ;
#198 = APPROVAL_PERSON_ORGANIZATION ( #19, #48, #249 ) ;
#199 = AXIS2_PLACEMENT_3D ( 'NONE', #244, #161, #228 ) ;
#200 = PERSON_AND_ORGANIZATION_ROLE ( 'design_owner' ) ;
#201 = ORIENTED_EDGE ( 'NONE', *, *, #117, .T. ) ;
#202 = PERSON_AND_ORGANIZATION_ROLE ( 'creator' ) ;
#203 = APPROVAL_DATE_TIME ( #182, #297 ) ;
#204 = DIRECTION ( 'NONE',  ( -3.491481338843133355E-15, 1.224646799147352961E-16, -1.000000000000000000 ) ) ;
#205 = PERSON_AND_ORGANIZATION ( #287, #264 ) ;
#206 = CONICAL_SURFACE ( 'NONE', #136, 0.4599999999999994094, 0.5235987755982954850 ) ;
#207 = DIRECTION ( 'NONE',  ( -3.491481338843133355E-15, 1.224646799147352961E-16, -1.000000000000000000 ) ) ;
#208 = SHAPE_DEFINITION_REPRESENTATION ( #214, #275 ) ;
#209 = FACE_OUTER_BOUND ( 'NONE', #215, .T. ) ;
#210 = CYLINDRICAL_SURFACE ( 'NONE', #31, 0.4599999999999996869 ) ;
#211 = ADVANCED_FACE ( 'NONE', ( #142 ), #25, .F. ) ;
#212 = PRODUCT_DEFINITION_FORMATION_WITH_SPECIFIED_SOURCE ( 'ANY', '', #84, .NOT_KNOWN. ) ;
#213 = ORIENTED_EDGE ( 'NONE', *, *, #42, .F. ) ;
#214 = PRODUCT_DEFINITION_SHAPE ( 'NONE', 'NONE',  #241 ) ;
#215 = EDGE_LOOP ( 'NONE', ( #189 ) ) ;
#216 = PRODUCT_RELATED_PRODUCT_CATEGORY ( 'detail', '', ( #84 ) ) ;
#217 = PLANE ( 'NONE',  #123 ) ;
#218 = CIRCLE ( 'NONE', #199, 0.3980299461620759316 ) ;
#219 = CARTESIAN_POINT ( 'NONE',  ( 1.745740669421566678E-14, 3.850633241984308652E-33, 5.000000000000000000 ) ) ;
#220 = AXIS2_PLACEMENT_3D ( 'NONE', #303, #22, #112 ) ;
#221 = DIRECTION ( 'NONE',  ( 0.0000000000000000000, 1.000000000000000000, 0.0000000000000000000 ) ) ;
#222 = VERTEX_POINT ( 'NONE', #269 ) ;
#223 = ORIENTED_EDGE ( 'NONE', *, *, #60, .T. ) ;
#224 = PERSON_AND_ORGANIZATION_ROLE ( 'design_supplier' ) ;
#225 = VERTEX_POINT ( 'NONE', #79 ) ;
#226 = ADVANCED_FACE ( 'NONE', ( #192 ), #238, .T. ) ;
#227 = ORIENTED_EDGE ( 'NONE', *, *, #42, .T. ) ;
#228 = DIRECTION ( 'NONE',  ( 4.275831445896957731E-31, 1.000000000000000000, 1.224646799147352961E-16 ) ) ;
#229 = DATE_TIME_ROLE ( 'classification_date' ) ;
#230 = FACE_BOUND ( 'NONE', #14, .T. ) ;
#231 = ADVANCED_FACE ( 'NONE', ( #118 ), #96, .F. ) ;
#232 = DATE_AND_TIME ( #56, #33 ) ;
#233 = AXIS2_PLACEMENT_3D ( 'NONE', #86, #204, #299 ) ;
#234 = CARTESIAN_POINT ( 'NONE',  ( 3.840629472727446691E-14, -1.347111479062088207E-15, 11.00000000000000000 ) ) ;
#235 = AXIS2_PLACEMENT_3D ( 'NONE', #193, #286, #128 ) ;
#236 = EDGE_LOOP ( 'NONE', ( #125 ) ) ;
#237 = ORIENTED_EDGE ( 'NONE', *, *, #21, .F. ) ;
#238 = PLANE ( 'NONE',  #194 ) ;
#239 = EDGE_CURVE ( 'NONE', #132, #132, #57, .T. ) ;
#240 = DIRECTION ( 'NONE',  ( 4.275831445896957731E-31, 1.000000000000000000, 1.224646799147353207E-16 ) ) ;
#241 = PRODUCT_DEFINITION ( 'UNKNOWN', '', #212, #46 ) ;
#242 = CONICAL_SURFACE ( 'NONE', #145, 1.499999999999997558, 0.1745329251994259256 ) ;
#243 = MECHANICAL_CONTEXT ( 'NONE', #266, 'mechanical' ) ;
#244 = CARTESIAN_POINT ( 'NONE',  ( -7.555410470168966788E-32, 2.650081255082008423E-33, -2.163955564108033974E-17 ) ) ;
#245 = PERSON_AND_ORGANIZATION_ROLE ( 'creator' ) ;
#246 = CARTESIAN_POINT ( 'NONE',  ( 9.463679131915805687E-32, 0.3980299461620759316, 2.710505431213761085E-17 ) ) ;
#247 = EDGE_LOOP ( 'NONE', ( #295 ) ) ;
#248 = APPROVAL_PERSON_ORGANIZATION ( #178, #297, #296 ) ;
#249 = APPROVAL_ROLE ( '' ) ;
#250 = DIRECTION ( 'NONE',  ( 3.491481338843133355E-15, -1.224646799147352961E-16, 1.000000000000000000 ) ) ;
#251 = APPROVAL_STATUS ( 'not_yet_approved' ) ;
#252 = CALENDAR_DATE ( 2021, 29, 11 ) ;
#253 = CARTESIAN_POINT ( 'NONE',  ( 5.961044642553360326E-14, -2.090853002667425764E-15, 17.07311041945448693 ) ) ;
#254 = CARTESIAN_POINT ( 'NONE',  ( 0.0000000000000000000, 0.0000000000000000000, 0.0000000000000000000 ) ) ;
#255 =( GEOMETRIC_REPRESENTATION_CONTEXT ( 3 ) GLOBAL_UNCERTAINTY_ASSIGNED_CONTEXT ( ( #166 ) ) GLOBAL_UNIT_ASSIGNED_CONTEXT ( ( #288, #146, #106 ) ) REPRESENTATION_CONTEXT ( 'NONE', 'WORKASPACE' ) );
#256 = CARTESIAN_POINT ( 'NONE',  ( 3.840629472727446691E-14, -1.301042606982605321E-15, 11.00000000000000000 ) ) ;
#257 = CYLINDRICAL_SURFACE ( 'NONE', #258, 1.500000000000000444 ) ;
#258 = AXIS2_PLACEMENT_3D ( 'NONE', #254, #285, #240 ) ;
#259 = ORIENTED_EDGE ( 'NONE', *, *, #60, .F. ) ;
#260 = DIRECTION ( 'NONE',  ( 3.491481338843133355E-15, -1.224646799147352961E-16, 1.000000000000000000 ) ) ;
#261 = EDGE_CURVE ( 'NONE', #77, #77, #113, .T. ) ;
#262 = CIRCLE ( 'NONE', #98, 0.5134999999999999565 ) ;
#263 = DIRECTION ( 'NONE',  ( 3.491481338843133355E-15, -1.224646799147352961E-16, 1.000000000000000000 ) ) ;
#264 = ORGANIZATION ( 'UNSPECIFIED', 'UNSPECIFIED', '' ) ;
#265 = CC_DESIGN_PERSON_AND_ORGANIZATION_ASSIGNMENT ( #126, #224, ( #212 ) ) ;
#266 = APPLICATION_CONTEXT ( 'configuration controlled 3d designs of mechanical parts and assemblies' ) ;
#267 = CARTESIAN_POINT ( 'NONE',  ( 1.745740669421566678E-14, -6.123233995736765296E-16, 5.000000000000000000 ) ) ;
#268 = DIRECTION ( 'NONE',  ( 0.0000000000000000000, 1.000000000000000000, 0.0000000000000000000 ) ) ;
#269 = CARTESIAN_POINT ( 'NONE',  ( 1.745740669421566678E-14, 0.5134999999999992903, 5.000000000000000000 ) ) ;
#270 = ORIENTED_EDGE ( 'NONE', *, *, #195, .T. ) ;
#271 = PERSON_AND_ORGANIZATION ( #287, #264 ) ;
#272 = CALENDAR_DATE ( 2021, 29, 11 ) ;
#273 = DIRECTION ( 'NONE',  ( 0.0000000000000000000, 1.000000000000000000, 0.0000000000000000000 ) ) ;
#274 = PERSON_AND_ORGANIZATION ( #287, #264 ) ;
#275 = ADVANCED_BREP_SHAPE_REPRESENTATION ( '200040', ( #111, #184, #279 ), #255 ) ;
#276 = FACE_OUTER_BOUND ( 'NONE', #116, .T. ) ;
#277 = APPROVAL_DATE_TIME ( #105, #153 ) ;
#278 = DIRECTION ( 'NONE',  ( -3.491481338843133355E-15, 1.224646799147352961E-16, -1.000000000000000000 ) ) ;
#279 = AXIS2_PLACEMENT_3D ( 'NONE', #124, #122, #100 ) ;
#280 = FACE_OUTER_BOUND ( 'NONE', #129, .T. ) ;
#281 = EDGE_LOOP ( 'NONE', ( #92 ) ) ;
#282 = EDGE_LOOP ( 'NONE', ( #197 ) ) ;
#283 = CARTESIAN_POINT ( 'NONE',  ( 1.745740669421566678E-14, -6.123233995736765296E-16, 5.000000000000000000 ) ) ;
#284 = EDGE_CURVE ( 'NONE', #222, #222, #262, .T. ) ;
#285 = DIRECTION ( 'NONE',  ( -3.491481338843133355E-15, 1.224646799147352961E-16, -1.000000000000000000 ) ) ;
#286 = DIRECTION ( 'NONE',  ( -3.491481338843133355E-15, 1.224646799147352961E-16, -1.000000000000000000 ) ) ;
#287 = PERSON ( 'UNSPECIFIED', 'UNSPECIFIED', 'UNSPECIFIED', ('UNSPECIFIED'), ('UNSPECIFIED'), ('UNSPECIFIED') ) ;
#288 =( LENGTH_UNIT ( ) NAMED_UNIT ( * ) SI_UNIT ( .MILLI., .METRE. ) );
#289 = CC_DESIGN_APPROVAL ( #153, ( #241 ) ) ;
#290 = AXIS2_PLACEMENT_3D ( 'NONE', #38, #207, #273 ) ;
#291 = VERTEX_POINT ( 'NONE', #246 ) ;
#292 = FACE_OUTER_BOUND ( 'NONE', #281, .T. ) ;
#293 = CC_DESIGN_PERSON_AND_ORGANIZATION_ASSIGNMENT ( #103, #200, ( #84 ) ) ;
#294 = CARTESIAN_POINT ( 'NONE',  ( 1.316288464743861212E-13, 1.499999999999998668, 37.69999999999999574 ) ) ;
#295 = ORIENTED_EDGE ( 'NONE', *, *, #97, .F. ) ;
#296 = APPROVAL_ROLE ( '' ) ;
#297 = APPROVAL ( #133, 'UNSPECIFIED' ) ;
#298 = APPROVAL_ROLE ( '' ) ;
#299 = DIRECTION ( 'NONE',  ( 0.0000000000000000000, 1.000000000000000000, 0.0000000000000000000 ) ) ;
#300 = APPROVAL_STATUS ( 'not_yet_approved' ) ;
#301 = CYLINDRICAL_SURFACE ( 'NONE', #18, 0.5134999999999996234 ) ;
#302 = CARTESIAN_POINT ( 'NONE',  ( 0.0000000000000000000, 0.0000000000000000000, 0.0000000000000000000 ) ) ;
#303 = CARTESIAN_POINT ( 'NONE',  ( 6.982962677686265724E-16, -2.449293598294705305E-17, 0.1999999999999999556 ) ) ;
ENDSEC;
END-ISO-10303-21;
