ISO-10303-21;
HEADER;
FILE_DESCRIPTION (( 'STEP AP203' ),
    '1' );
FILE_NAME ('200039.step',
    '2021-11-29T14:49:26',
    ( '' ),
    ( '' ),
    'SwSTEP 2.0',
    'SolidWorks 2019',
    '' );
FILE_SCHEMA (( 'CONFIG_CONTROL_DESIGN' ));
ENDSEC;

DATA;
#1 = CARTESIAN_POINT ( 'NONE',  ( 6.982962677686267697E-16, 0.4584999999999994635, 0.2000000000000000111 ) ) ;
#2 = DIRECTION ( 'NONE',  ( 3.491481338843133355E-15, -1.224646799147352961E-16, 1.000000000000000000 ) ) ;
#3 = AXIS2_PLACEMENT_3D ( 'NONE', #66, #136, #162 ) ;
#4 = CARTESIAN_POINT ( 'NONE',  ( 1.772046959787181091E-14, 0.4149999999999987588, 5.075344210129247635 ) ) ;
#5 = CARTESIAN_POINT ( 'NONE',  ( 1.745740669421566678E-14, 3.438199301752298220E-33, 5.000000000000000000 ) ) ;
#6 = CALENDAR_DATE ( 2021, 29, 11 ) ;
#7 = DATE_AND_TIME ( #101, #132 ) ;
#8 = ORIENTED_EDGE ( 'NONE', *, *, #245, .F. ) ;
#9 = EDGE_CURVE ( 'NONE', #217, #217, #282, .T. ) ;
#10 = APPROVAL_STATUS ( 'not_yet_approved' ) ;
#11 = COORDINATED_UNIVERSAL_TIME_OFFSET ( 1, 0, .AHEAD. ) ;
#12 = SECURITY_CLASSIFICATION ( '', '', #175 ) ;
#13 =( LENGTH_UNIT ( ) NAMED_UNIT ( * ) SI_UNIT ( .MILLI., .METRE. ) );
#14 = DIRECTION ( 'NONE',  ( -3.491481338843133355E-15, 1.224646799147352961E-16, -1.000000000000000000 ) ) ;
#15 = CARTESIAN_POINT ( 'NONE',  ( 1.326762908760390423E-13, -4.653657836759941152E-15, 38.00000000000000000 ) ) ;
#16 = CARTESIAN_POINT ( 'NONE',  ( 1.772046959787181091E-14, -6.215504041505834086E-16, 5.075344210129247635 ) ) ;
#17 = CC_DESIGN_PERSON_AND_ORGANIZATION_ASSIGNMENT ( #290, #222, ( #84 ) ) ;
#18 = ORIENTED_EDGE ( 'NONE', *, *, #144, .F. ) ;
#19 = FACE_BOUND ( 'NONE', #277, .T. ) ;
#20 = AXIS2_PLACEMENT_3D ( 'NONE', #231, #14, #210 ) ;
#21 = CARTESIAN_POINT ( 'NONE',  ( -1.206553071937862652E-31, 4.232018487716441561E-33, -3.455705343502255916E-17 ) ) ;
#22 = VERTEX_POINT ( 'NONE', #4 ) ;
#23 = DIRECTION ( 'NONE',  ( 3.491481338843133355E-15, -1.224646799147352961E-16, 1.000000000000000000 ) ) ;
#24 = CYLINDRICAL_SURFACE ( 'NONE', #207, 1.500000000000000444 ) ;
#25 = APPROVAL_PERSON_ORGANIZATION ( #77, #28, #204 ) ;
#26 = CARTESIAN_POINT ( 'NONE',  ( 3.612739213212769742E-14, -1.267178336138866772E-15, 10.34729635533384773 ) ) ;
#27 = CARTESIAN_POINT ( 'NONE',  ( -9.463679131915804593E-32, 0.3430299461620759383, -2.710505431213761085E-17 ) ) ;
#28 = APPROVAL ( #10, 'UNSPECIFIED' ) ;
#29 =( NAMED_UNIT ( * ) SI_UNIT ( $, .STERADIAN. ) SOLID_ANGLE_UNIT ( ) );
#30 = AXIS2_PLACEMENT_3D ( 'NONE', #16, #68, #254 ) ;
#31 = AXIS2_PLACEMENT_3D ( 'NONE', #275, #42, #64 ) ;
#32 = LOCAL_TIME ( 15, 49, 26.00000000000000000, #179 ) ;
#33 = DATE_AND_TIME ( #203, #124 ) ;
#34 = APPROVAL_ROLE ( '' ) ;
#35 = ORIENTED_EDGE ( 'NONE', *, *, #286, .F. ) ;
#36 = EDGE_CURVE ( 'NONE', #22, #22, #163, .T. ) ;
#37 = COORDINATED_UNIVERSAL_TIME_OFFSET ( 1, 0, .AHEAD. ) ;
#38 = ORIENTED_EDGE ( 'NONE', *, *, #255, .T. ) ;
#39 = DIRECTION ( 'NONE',  ( 0.0000000000000000000, 1.000000000000000000, 0.0000000000000000000 ) ) ;
#40 = CARTESIAN_POINT ( 'NONE',  ( 6.982962677686265724E-16, -2.449293598294705305E-17, 0.1999999999999999556 ) ) ;
#41 = CC_DESIGN_PERSON_AND_ORGANIZATION_ASSIGNMENT ( #152, #103, ( #12 ) ) ;
#42 = DIRECTION ( 'NONE',  ( -3.491481338843133355E-15, 1.224646799147352961E-16, -1.000000000000000000 ) ) ;
#43 = AXIS2_PLACEMENT_3D ( 'NONE', #70, #287, #50 ) ;
#44 = APPROVAL_PERSON_ORGANIZATION ( #229, #271, #269 ) ;
#45 = EDGE_LOOP ( 'NONE', ( #59 ) ) ;
#46 = ORIENTED_EDGE ( 'NONE', *, *, #9, .T. ) ;
#47 = FACE_OUTER_BOUND ( 'NONE', #154, .T. ) ;
#48 = AXIS2_PLACEMENT_3D ( 'NONE', #83, #185, #299 ) ;
#49 = DIRECTION ( 'NONE',  ( 0.0000000000000000000, 1.000000000000000000, 0.0000000000000000000 ) ) ;
#50 = DIRECTION ( 'NONE',  ( -4.275831445896957731E-31, -1.000000000000000000, -1.224646799147352961E-16 ) ) ;
#51 = DIRECTION ( 'NONE',  ( 4.200501514475982562E-31, 1.000000000000000000, 1.182336065960202448E-16 ) ) ;
#52 = ADVANCED_FACE ( 'NONE', ( #188, #140 ), #165, .T. ) ;
#53 = DIRECTION ( 'NONE',  ( -3.491481338843133355E-15, 1.224646799147352961E-16, -1.000000000000000000 ) ) ;
#54 = APPROVAL_STATUS ( 'not_yet_approved' ) ;
#55 = APPLICATION_PROTOCOL_DEFINITION ( 'international standard', 'config_control_design', 1994, #96 ) ;
#56 = ORIENTED_EDGE ( 'NONE', *, *, #106, .T. ) ;
#57 = PERSON_AND_ORGANIZATION ( #227, #195 ) ;
#58 = CIRCLE ( 'NONE', #20, 0.4585000000000000187 ) ;
#59 = ORIENTED_EDGE ( 'NONE', *, *, #109, .F. ) ;
#60 =( GEOMETRIC_REPRESENTATION_CONTEXT ( 3 ) GLOBAL_UNCERTAINTY_ASSIGNED_CONTEXT ( ( #258 ) ) GLOBAL_UNIT_ASSIGNED_CONTEXT ( ( #13, #174, #29 ) ) REPRESENTATION_CONTEXT ( 'NONE', 'WORKASPACE' ) );
#61 = MECHANICAL_CONTEXT ( 'NONE', #209, 'mechanical' ) ;
#62 = MANIFOLD_SOLID_BREP ( 'Corps-Déplacer/Copier1[2]', #112 ) ;
#63 = EDGE_LOOP ( 'NONE', ( #38 ) ) ;
#64 = DIRECTION ( 'NONE',  ( 0.0000000000000000000, 1.000000000000000000, 0.0000000000000000000 ) ) ;
#65 = ADVANCED_FACE ( 'NONE', ( #111, #300 ), #190, .T. ) ;
#66 = CARTESIAN_POINT ( 'NONE',  ( 0.0000000000000000000, 0.0000000000000000000, 0.0000000000000000000 ) ) ;
#67 = DESIGN_CONTEXT ( 'detailed design', #96, 'design' ) ;
#68 = DIRECTION ( 'NONE',  ( -3.491481338843133355E-15, 1.224646799147352961E-16, -1.000000000000000000 ) ) ;
#69 = DIRECTION ( 'NONE',  ( 0.0000000000000000000, 1.000000000000000000, 0.0000000000000000000 ) ) ;
#70 = CARTESIAN_POINT ( 'NONE',  ( 1.745740669421566678E-14, 3.438199301752298220E-33, 5.000000000000000000 ) ) ;
#71 = VERTEX_POINT ( 'NONE', #218 ) ;
#72 = ADVANCED_FACE ( 'NONE', ( #137 ), #86, .F. ) ;
#73 = DIRECTION ( 'NONE',  ( -3.491481338843133355E-15, 1.224646799147352961E-16, -1.000000000000000000 ) ) ;
#74 = FACE_OUTER_BOUND ( 'NONE', #223, .T. ) ;
#75 = DATE_AND_TIME ( #200, #32 ) ;
#76 = ORIENTED_EDGE ( 'NONE', *, *, #36, .F. ) ;
#77 = PERSON_AND_ORGANIZATION ( #227, #195 ) ;
#78 = EDGE_LOOP ( 'NONE', ( #8 ) ) ;
#79 = PERSON_AND_ORGANIZATION_ROLE ( 'design_supplier' ) ;
#80 = APPLICATION_PROTOCOL_DEFINITION ( 'international standard', 'config_control_design', 1994, #209 ) ;
#81 = PRODUCT_DEFINITION_SHAPE ( 'NONE', 'NONE',  #84 ) ;
#82 = EDGE_LOOP ( 'NONE', ( #102 ) ) ;
#83 = CARTESIAN_POINT ( 'NONE',  ( 1.326762908760390423E-13, 8.998558695971099120E-33, 38.00000000000000000 ) ) ;
#84 = PRODUCT_DEFINITION ( 'UNKNOWN', '', #138, #67 ) ;
#85 = AXIS2_PLACEMENT_3D ( 'NONE', #21, #23, #281 ) ;
#86 = PLANE ( 'NONE',  #48 ) ;
#87 = ORIENTED_EDGE ( 'NONE', *, *, #255, .F. ) ;
#88 = DATE_AND_TIME ( #107, #164 ) ;
#89 = APPROVAL ( #54, 'UNSPECIFIED' ) ;
#90 = CARTESIAN_POINT ( 'NONE',  ( 1.316288464743861212E-13, -4.616918432785520292E-15, 37.69999999999999574 ) ) ;
#91 = DIRECTION ( 'NONE',  ( 0.0000000000000000000, 1.000000000000000000, 0.0000000000000000000 ) ) ;
#92 = CARTESIAN_POINT ( 'NONE',  ( 1.745740669421566678E-14, 0.4584999999999994080, 5.000000000000000000 ) ) ;
#93 = CARTESIAN_POINT ( 'NONE',  ( 3.491481338843133355E-14, 0.4149999999999987033, 10.00000000000000000 ) ) ;
#94 = ADVANCED_FACE ( 'NONE', ( #301, #114 ), #212, .T. ) ;
#95 = AXIS2_PLACEMENT_3D ( 'NONE', #246, #2, #265 ) ;
#96 = APPLICATION_CONTEXT ( 'configuration controlled 3d designs of mechanical parts and assemblies' ) ;
#97 = PLANE ( 'NONE',  #43 ) ;
#98 = CARTESIAN_POINT ( 'NONE',  ( -2.413106143875725303E-31, 8.464036975432883121E-33, -6.911410687004511831E-17 ) ) ;
#99 = DIRECTION ( 'NONE',  ( 4.275831445896957731E-31, 1.000000000000000000, 1.224646799147352961E-16 ) ) ;
#100 = CIRCLE ( 'NONE', #216, 1.500000000000003331 ) ;
#101 = CALENDAR_DATE ( 2021, 29, 11 ) ;
#102 = ORIENTED_EDGE ( 'NONE', *, *, #109, .T. ) ;
#103 = PERSON_AND_ORGANIZATION_ROLE ( 'classification_officer' ) ;
#104 = EDGE_LOOP ( 'NONE', ( #139 ) ) ;
#105 = PERSON_AND_ORGANIZATION ( #227, #195 ) ;
#106 = EDGE_CURVE ( 'NONE', #170, #170, #100, .T. ) ;
#107 = CALENDAR_DATE ( 2021, 29, 11 ) ;
#108 = AXIS2_PLACEMENT_3D ( 'NONE', #15, #259, #39 ) ;
#109 = EDGE_CURVE ( 'NONE', #198, #198, #113, .T. ) ;
#110 = EDGE_LOOP ( 'NONE', ( #211 ) ) ;
#111 = FACE_OUTER_BOUND ( 'NONE', #115, .T. ) ;
#112 = CLOSED_SHELL ( 'NONE', ( #251, #176, #94, #292 ) ) ;
#113 = CIRCLE ( 'NONE', #226, 1.499999999999997335 ) ;
#114 = FACE_OUTER_BOUND ( 'NONE', #208, .T. ) ;
#115 = EDGE_LOOP ( 'NONE', ( #253 ) ) ;
#116 = DIRECTION ( 'NONE',  ( -3.491481338843133355E-15, 1.224646799147352961E-16, -1.000000000000000000 ) ) ;
#117 = CONICAL_SURFACE ( 'NONE', #199, 0.4584999999999994635, 0.5235987755982927094 ) ;
#118 = TOROIDAL_SURFACE ( 'NONE', #274, 2.415000000000000036, 2.000000000000000000 ) ;
#119 = FACE_OUTER_BOUND ( 'NONE', #45, .T. ) ;
#120 = VERTEX_POINT ( 'NONE', #92 ) ;
#121 = VERTEX_POINT ( 'NONE', #1 ) ;
#122 = CLOSED_SHELL ( 'NONE', ( #206, #126, #52, #295, #197, #266, #65, #72 ) ) ;
#123 = CIRCLE ( 'NONE', #31, 0.4149999999999999245 ) ;
#124 = LOCAL_TIME ( 15, 49, 26.00000000000000000, #130 ) ;
#125 = FACE_OUTER_BOUND ( 'NONE', #63, .T. ) ;
#126 = ADVANCED_FACE ( 'NONE', ( #260, #19 ), #298, .T. ) ;
#127 = DIRECTION ( 'NONE',  ( -3.491481338843133355E-15, 1.224646799147352961E-16, -1.000000000000000000 ) ) ;
#128 = ORIENTED_EDGE ( 'NONE', *, *, #144, .T. ) ;
#129 = DATE_TIME_ROLE ( 'classification_date' ) ;
#130 = COORDINATED_UNIVERSAL_TIME_OFFSET ( 1, 0, .AHEAD. ) ;
#131 = DATE_TIME_ROLE ( 'creation_date' ) ;
#132 = LOCAL_TIME ( 15, 49, 26.00000000000000000, #37 ) ;
#133 = EDGE_LOOP ( 'NONE', ( #87 ) ) ;
#134 = APPROVAL_DATE_TIME ( #88, #28 ) ;
#135 = DIRECTION ( 'NONE',  ( 4.275831445896957731E-31, 1.000000000000000000, 1.224646799147353207E-16 ) ) ;
#136 = DIRECTION ( 'NONE',  ( -3.491481338843133355E-15, 1.224646799147352961E-16, -1.000000000000000000 ) ) ;
#137 = FACE_OUTER_BOUND ( 'NONE', #302, .T. ) ;
#138 = PRODUCT_DEFINITION_FORMATION_WITH_SPECIFIED_SOURCE ( 'ANY', '', #181, .NOT_KNOWN. ) ;
#139 = ORIENTED_EDGE ( 'NONE', *, *, #148, .T. ) ;
#140 = FACE_OUTER_BOUND ( 'NONE', #104, .T. ) ;
#141 = FACE_OUTER_BOUND ( 'NONE', #161, .T. ) ;
#142 = CIRCLE ( 'NONE', #284, 1.200000000000003286 ) ;
#143 = AXIS2_PLACEMENT_3D ( 'NONE', #155, #224, #272 ) ;
#144 = EDGE_CURVE ( 'NONE', #120, #120, #58, .T. ) ;
#145 = DIRECTION ( 'NONE',  ( 3.491481338843133355E-15, -1.224646799147352961E-16, 1.000000000000000000 ) ) ;
#146 = DIRECTION ( 'NONE',  ( -3.491481338843133355E-15, 1.224646799147352961E-16, -1.000000000000000000 ) ) ;
#147 = DIRECTION ( 'NONE',  ( 4.275831445896957731E-31, 1.000000000000000000, 1.224646799147353207E-16 ) ) ;
#148 = EDGE_CURVE ( 'NONE', #192, #192, #123, .T. ) ;
#149 = AXIS2_PLACEMENT_3D ( 'NONE', #98, #127, #99 ) ;
#150 = APPROVAL_PERSON_ORGANIZATION ( #267, #89, #34 ) ;
#151 = DIRECTION ( 'NONE',  ( -3.491481338843133355E-15, 1.224646799147352961E-16, -1.000000000000000000 ) ) ;
#152 = PERSON_AND_ORGANIZATION ( #227, #195 ) ;
#153 = CC_DESIGN_SECURITY_CLASSIFICATION ( #12, ( #138 ) ) ;
#154 = EDGE_LOOP ( 'NONE', ( #46 ) ) ;
#155 = CARTESIAN_POINT ( 'NONE',  ( 0.0000000000000000000, 0.0000000000000000000, 0.0000000000000000000 ) ) ;
#156 = DATE_AND_TIME ( #6, #278 ) ;
#157 = CC_DESIGN_DATE_AND_TIME_ASSIGNMENT ( #33, #129, ( #12 ) ) ;
#158 = MANIFOLD_SOLID_BREP ( 'Corps-Déplacer/Copier1[1]', #122 ) ;
#159 = EDGE_LOOP ( 'NONE', ( #35 ) ) ;
#160 = FACE_BOUND ( 'NONE', #159, .T. ) ;
#161 = EDGE_LOOP ( 'NONE', ( #18 ) ) ;
#162 = DIRECTION ( 'NONE',  ( 4.275831445896957731E-31, 1.000000000000000000, 1.224646799147352961E-16 ) ) ;
#163 = CIRCLE ( 'NONE', #30, 0.4149999999999993694 ) ;
#164 = LOCAL_TIME ( 15, 49, 26.00000000000000000, #11 ) ;
#165 = CYLINDRICAL_SURFACE ( 'NONE', #3, 0.4149999999999997025 ) ;
#166 = DIRECTION ( 'NONE',  ( -4.275831445896957731E-31, -1.000000000000000000, -1.224646799147352961E-16 ) ) ;
#167 = FACE_OUTER_BOUND ( 'NONE', #82, .T. ) ;
#168 = AXIS2_PLACEMENT_3D ( 'NONE', #276, #213, #91 ) ;
#169 = AXIS2_PLACEMENT_3D ( 'NONE', #191, #116, #215 ) ;
#170 = VERTEX_POINT ( 'NONE', #303 ) ;
#171 = DIRECTION ( 'NONE',  ( 0.0000000000000000000, 1.000000000000000000, 0.0000000000000000000 ) ) ;
#172 = DIRECTION ( 'NONE',  ( -4.200501514475982562E-31, -1.000000000000000000, -1.182336065960202448E-16 ) ) ;
#173 = CIRCLE ( 'NONE', #149, 0.3430299461620759383 ) ;
#174 =( NAMED_UNIT ( * ) PLANE_ANGLE_UNIT ( ) SI_UNIT ( $, .RADIAN. ) );
#175 = SECURITY_CLASSIFICATION_LEVEL ( 'unclassified' ) ;
#176 = ADVANCED_FACE ( 'NONE', ( #160, #256 ), #117, .T. ) ;
#177 = PERSON_AND_ORGANIZATION_ROLE ( 'design_owner' ) ;
#178 = ORIENTED_EDGE ( 'NONE', *, *, #286, .T. ) ;
#179 = COORDINATED_UNIVERSAL_TIME_OFFSET ( 1, 0, .AHEAD. ) ;
#180 = CIRCLE ( 'NONE', #184, 0.4453844939755811638 ) ;
#181 = PRODUCT ( '200039', '200039', '', ( #61 ) ) ;
#182 = CC_DESIGN_PERSON_AND_ORGANIZATION_ASSIGNMENT ( #105, #177, ( #181 ) ) ;
#183 = SHAPE_DEFINITION_REPRESENTATION ( #81, #205 ) ;
#184 = AXIS2_PLACEMENT_3D ( 'NONE', #26, #73, #49 ) ;
#185 = DIRECTION ( 'NONE',  ( -3.491481338843133355E-15, 1.224646799147352961E-16, -1.000000000000000000 ) ) ;
#186 = EDGE_LOOP ( 'NONE', ( #237 ) ) ;
#187 = EDGE_CURVE ( 'NONE', #71, #71, #142, .T. ) ;
#188 = FACE_OUTER_BOUND ( 'NONE', #201, .T. ) ;
#189 = CARTESIAN_POINT ( 'NONE',  ( 0.0000000000000000000, 0.0000000000000000000, 0.0000000000000000000 ) ) ;
#190 = CONICAL_SURFACE ( 'NONE', #108, 1.200000000000003286, 0.7853981633974453924 ) ;
#191 = CARTESIAN_POINT ( 'NONE',  ( 1.772046959787181091E-14, -6.215504041505834086E-16, 5.075344210129247635 ) ) ;
#192 = VERTEX_POINT ( 'NONE', #93 ) ;
#193 = VERTEX_POINT ( 'NONE', #219 ) ;
#194 = CIRCLE ( 'NONE', #270, 0.4584999999999994635 ) ;
#195 = ORGANIZATION ( 'UNSPECIFIED', 'UNSPECIFIED', '' ) ;
#196 = VERTEX_POINT ( 'NONE', #27 ) ;
#197 = ADVANCED_FACE ( 'NONE', ( #262, #167 ), #234, .T. ) ;
#198 = VERTEX_POINT ( 'NONE', #244 ) ;
#199 = AXIS2_PLACEMENT_3D ( 'NONE', #40, #233, #172 ) ;
#200 = CALENDAR_DATE ( 2021, 29, 11 ) ;
#201 = EDGE_LOOP ( 'NONE', ( #76 ) ) ;
#202 = CC_DESIGN_DATE_AND_TIME_ASSIGNMENT ( #7, #131, ( #84 ) ) ;
#203 = CALENDAR_DATE ( 2021, 29, 11 ) ;
#204 = APPROVAL_ROLE ( '' ) ;
#205 = ADVANCED_BREP_SHAPE_REPRESENTATION ( '200039', ( #158, #62, #143 ), #60 ) ;
#206 = ADVANCED_FACE ( 'NONE', ( #47 ), #97, .F. ) ;
#207 = AXIS2_PLACEMENT_3D ( 'NONE', #264, #146, #147 ) ;
#208 = EDGE_LOOP ( 'NONE', ( #128 ) ) ;
#209 = APPLICATION_CONTEXT ( 'configuration controlled 3d designs of mechanical parts and assemblies' ) ;
#210 = DIRECTION ( 'NONE',  ( 0.0000000000000000000, 1.000000000000000000, 0.0000000000000000000 ) ) ;
#211 = ORIENTED_EDGE ( 'NONE', *, *, #148, .F. ) ;
#212 = CYLINDRICAL_SURFACE ( 'NONE', #241, 0.4584999999999997411 ) ;
#213 = DIRECTION ( 'NONE',  ( -3.491481338843133355E-15, 1.224646799147352961E-16, -1.000000000000000000 ) ) ;
#214 = CC_DESIGN_PERSON_AND_ORGANIZATION_ASSIGNMENT ( #288, #250, ( #138 ) ) ;
#215 = DIRECTION ( 'NONE',  ( 0.0000000000000000000, 1.000000000000000000, 0.0000000000000000000 ) ) ;
#216 = AXIS2_PLACEMENT_3D ( 'NONE', #90, #239, #297 ) ;
#217 = VERTEX_POINT ( 'NONE', #261 ) ;
#218 = CARTESIAN_POINT ( 'NONE',  ( 1.326762908760390423E-13, 1.199999999999998845, 38.00000000000000000 ) ) ;
#219 = CARTESIAN_POINT ( 'NONE',  ( 3.612739213212769742E-14, 0.4453844939755798871, 10.34729635533384773 ) ) ;
#220 = DIRECTION ( 'NONE',  ( 4.275831445896957731E-31, 1.000000000000000000, 1.224646799147352961E-16 ) ) ;
#221 = PLANE ( 'NONE',  #242 ) ;
#222 = PERSON_AND_ORGANIZATION_ROLE ( 'creator' ) ;
#223 = EDGE_LOOP ( 'NONE', ( #56 ) ) ;
#224 = DIRECTION ( 'NONE',  ( 0.0000000000000000000, 0.0000000000000000000, 1.000000000000000000 ) ) ;
#225 = APPROVAL_DATE_TIME ( #75, #271 ) ;
#226 = AXIS2_PLACEMENT_3D ( 'NONE', #279, #236, #69 ) ;
#227 = PERSON ( 'UNSPECIFIED', 'UNSPECIFIED', 'UNSPECIFIED', ('UNSPECIFIED'), ('UNSPECIFIED'), ('UNSPECIFIED') ) ;
#228 = CC_DESIGN_APPROVAL ( #89, ( #84 ) ) ;
#229 = PERSON_AND_ORGANIZATION ( #227, #195 ) ;
#230 = EDGE_LOOP ( 'NONE', ( #178 ) ) ;
#231 = CARTESIAN_POINT ( 'NONE',  ( 1.745740669421566678E-14, -6.123233995736765296E-16, 5.000000000000000000 ) ) ;
#232 = PRODUCT_RELATED_PRODUCT_CATEGORY ( 'detail', '', ( #181 ) ) ;
#233 = DIRECTION ( 'NONE',  ( 3.491481338843133355E-15, -1.224646799147352961E-16, 1.000000000000000000 ) ) ;
#234 = CONICAL_SURFACE ( 'NONE', #95, 1.499999999999997335, 0.1745329251994260922 ) ;
#235 = CC_DESIGN_APPROVAL ( #28, ( #12 ) ) ;
#236 = DIRECTION ( 'NONE',  ( -3.491481338843133355E-15, 1.224646799147352961E-16, -1.000000000000000000 ) ) ;
#237 = ORIENTED_EDGE ( 'NONE', *, *, #187, .T. ) ;
#238 = CC_DESIGN_PERSON_AND_ORGANIZATION_ASSIGNMENT ( #57, #79, ( #138 ) ) ;
#239 = DIRECTION ( 'NONE',  ( -3.491481338843133355E-15, 1.224646799147352961E-16, -1.000000000000000000 ) ) ;
#240 = CARTESIAN_POINT ( 'NONE',  ( 1.326762908760390423E-13, -4.653657836759941152E-15, 38.00000000000000000 ) ) ;
#241 = AXIS2_PLACEMENT_3D ( 'NONE', #189, #257, #135 ) ;
#242 = AXIS2_PLACEMENT_3D ( 'NONE', #5, #145, #166 ) ;
#243 = FACE_OUTER_BOUND ( 'NONE', #110, .T. ) ;
#244 = CARTESIAN_POINT ( 'NONE',  ( 5.701001794551369102E-14, 1.499999999999995559, 16.32831810133729178 ) ) ;
#245 = EDGE_CURVE ( 'NONE', #121, #121, #194, .T. ) ;
#246 = CARTESIAN_POINT ( 'NONE',  ( 5.701001794551369102E-14, -1.999642249826249714E-15, 16.32831810133729178 ) ) ;
#247 = FACE_OUTER_BOUND ( 'NONE', #230, .T. ) ;
#248 = COORDINATED_UNIVERSAL_TIME_OFFSET ( 1, 0, .AHEAD. ) ;
#249 = ORIENTED_EDGE ( 'NONE', *, *, #245, .T. ) ;
#250 = PERSON_AND_ORGANIZATION_ROLE ( 'creator' ) ;
#251 = ADVANCED_FACE ( 'NONE', ( #247 ), #285, .F. ) ;
#252 = APPROVAL_DATE_TIME ( #156, #89 ) ;
#253 = ORIENTED_EDGE ( 'NONE', *, *, #106, .F. ) ;
#254 = DIRECTION ( 'NONE',  ( 0.0000000000000000000, 1.000000000000000000, 0.0000000000000000000 ) ) ;
#255 = EDGE_CURVE ( 'NONE', #193, #193, #180, .T. ) ;
#256 = FACE_OUTER_BOUND ( 'NONE', #268, .T. ) ;
#257 = DIRECTION ( 'NONE',  ( -3.491481338843133355E-15, 1.224646799147352961E-16, -1.000000000000000000 ) ) ;
#258 = UNCERTAINTY_MEASURE_WITH_UNIT (LENGTH_MEASURE( 1.000000000000000082E-05 ), #13, 'distance_accuracy_value', 'NONE');
#259 = DIRECTION ( 'NONE',  ( -3.491481338843133355E-15, 1.224646799147352961E-16, -1.000000000000000000 ) ) ;
#260 = FACE_OUTER_BOUND ( 'NONE', #273, .T. ) ;
#261 = CARTESIAN_POINT ( 'NONE',  ( 1.745740669421566678E-14, 0.4584999999999994080, 5.000000000000000000 ) ) ;
#262 = FACE_BOUND ( 'NONE', #133, .T. ) ;
#263 = CARTESIAN_POINT ( 'NONE',  ( 6.982962677686265724E-16, -2.449293598294705305E-17, 0.1999999999999999556 ) ) ;
#264 = CARTESIAN_POINT ( 'NONE',  ( 0.0000000000000000000, 0.0000000000000000000, 0.0000000000000000000 ) ) ;
#265 = DIRECTION ( 'NONE',  ( 0.0000000000000000000, -1.000000000000000000, 0.0000000000000000000 ) ) ;
#266 = ADVANCED_FACE ( 'NONE', ( #119, #74 ), #24, .T. ) ;
#267 = PERSON_AND_ORGANIZATION ( #227, #195 ) ;
#268 = EDGE_LOOP ( 'NONE', ( #249 ) ) ;
#269 = APPROVAL_ROLE ( '' ) ;
#270 = AXIS2_PLACEMENT_3D ( 'NONE', #263, #53, #51 ) ;
#271 = APPROVAL ( #293, 'UNSPECIFIED' ) ;
#272 = DIRECTION ( 'NONE',  ( 1.000000000000000000, 0.0000000000000000000, 0.0000000000000000000 ) ) ;
#273 = EDGE_LOOP ( 'NONE', ( #291 ) ) ;
#274 = AXIS2_PLACEMENT_3D ( 'NONE', #283, #151, #220 ) ;
#275 = CARTESIAN_POINT ( 'NONE',  ( 3.491481338843133355E-14, -1.224646799147353059E-15, 10.00000000000000000 ) ) ;
#276 = CARTESIAN_POINT ( 'NONE',  ( 1.745740669421566678E-14, -6.123233995736765296E-16, 5.000000000000000000 ) ) ;
#277 = EDGE_LOOP ( 'NONE', ( #296 ) ) ;
#278 = LOCAL_TIME ( 15, 49, 26.00000000000000000, #248 ) ;
#279 = CARTESIAN_POINT ( 'NONE',  ( 5.701001794551369102E-14, -1.999642249826249714E-15, 16.32831810133729178 ) ) ;
#280 = DIRECTION ( 'NONE',  ( -3.491481338843133355E-15, 1.224646799147352961E-16, -1.000000000000000000 ) ) ;
#281 = DIRECTION ( 'NONE',  ( -4.275831445896957731E-31, -1.000000000000000000, -1.224646799147352961E-16 ) ) ;
#282 = CIRCLE ( 'NONE', #168, 0.4585000000000000187 ) ;
#283 = CARTESIAN_POINT ( 'NONE',  ( 3.491481338843133355E-14, -1.301042606982605321E-15, 10.00000000000000000 ) ) ;
#284 = AXIS2_PLACEMENT_3D ( 'NONE', #240, #280, #171 ) ;
#285 = PLANE ( 'NONE',  #85 ) ;
#286 = EDGE_CURVE ( 'NONE', #196, #196, #173, .T. ) ;
#287 = DIRECTION ( 'NONE',  ( 3.491481338843133355E-15, -1.224646799147352961E-16, 1.000000000000000000 ) ) ;
#288 = PERSON_AND_ORGANIZATION ( #227, #195 ) ;
#289 = ORIENTED_EDGE ( 'NONE', *, *, #187, .F. ) ;
#290 = PERSON_AND_ORGANIZATION ( #227, #195 ) ;
#291 = ORIENTED_EDGE ( 'NONE', *, *, #9, .F. ) ;
#292 = ADVANCED_FACE ( 'NONE', ( #141 ), #221, .T. ) ;
#293 = APPROVAL_STATUS ( 'not_yet_approved' ) ;
#294 = CC_DESIGN_APPROVAL ( #271, ( #138 ) ) ;
#295 = ADVANCED_FACE ( 'NONE', ( #243, #125 ), #118, .F. ) ;
#296 = ORIENTED_EDGE ( 'NONE', *, *, #36, .T. ) ;
#297 = DIRECTION ( 'NONE',  ( 0.0000000000000000000, 1.000000000000000000, 0.0000000000000000000 ) ) ;
#298 = CONICAL_SURFACE ( 'NONE', #169, 0.4149999999999993694, 0.5235987755982952629 ) ;
#299 = DIRECTION ( 'NONE',  ( 4.275831445896957731E-31, 1.000000000000000000, 1.224646799147352961E-16 ) ) ;
#300 = FACE_BOUND ( 'NONE', #186, .T. ) ;
#301 = FACE_OUTER_BOUND ( 'NONE', #78, .T. ) ;
#302 = EDGE_LOOP ( 'NONE', ( #289 ) ) ;
#303 = CARTESIAN_POINT ( 'NONE',  ( 1.316288464743861212E-13, 1.499999999999998668, 37.69999999999999574 ) ) ;
ENDSEC;
END-ISO-10303-21;
