ISO-10303-21;
HEADER;
FILE_DESCRIPTION (( 'STEP AP203' ),
    '1' );
FILE_NAME ('200038.step',
    '2021-11-29T14:49:25',
    ( '' ),
    ( '' ),
    'SwSTEP 2.0',
    'SolidWorks 2019',
    '' );
FILE_SCHEMA (( 'CONFIG_CONTROL_DESIGN' ));
ENDSEC;

DATA;
#1 = ORIENTED_EDGE ( 'NONE', *, *, #295, .T. ) ;
#2 = AXIS2_PLACEMENT_3D ( 'NONE', #165, #84, #49 ) ;
#3 = DIRECTION ( 'NONE',  ( 4.275831445896957731E-31, 1.000000000000000000, 1.224646799147352961E-16 ) ) ;
#4 = FACE_OUTER_BOUND ( 'NONE', #270, .T. ) ;
#5 = AXIS2_PLACEMENT_3D ( 'NONE', #138, #136, #107 ) ;
#6 = PRODUCT_RELATED_PRODUCT_CATEGORY ( 'detail', '', ( #302 ) ) ;
#7 = VERTEX_POINT ( 'NONE', #213 ) ;
#8 = FACE_OUTER_BOUND ( 'NONE', #179, .T. ) ;
#9 = DIRECTION ( 'NONE',  ( 0.0000000000000000000, 1.000000000000000000, 0.0000000000000000000 ) ) ;
#10 = VERTEX_POINT ( 'NONE', #169 ) ;
#11 = CIRCLE ( 'NONE', #60, 0.5034999999999999476 ) ;
#12 = DIRECTION ( 'NONE',  ( -3.491481338843133355E-15, 1.224646799147352961E-16, -1.000000000000000000 ) ) ;
#13 = CALENDAR_DATE ( 2021, 29, 11 ) ;
#14 = APPLICATION_CONTEXT ( 'configuration controlled 3d designs of mechanical parts and assemblies' ) ;
#15 = ORIENTED_EDGE ( 'NONE', *, *, #105, .F. ) ;
#16 = EDGE_LOOP ( 'NONE', ( #1 ) ) ;
#17 = APPLICATION_PROTOCOL_DEFINITION ( 'international standard', 'config_control_design', 1994, #123 ) ;
#18 = CC_DESIGN_PERSON_AND_ORGANIZATION_ASSIGNMENT ( #102, #104, ( #197 ) ) ;
#19 = DATE_TIME_ROLE ( 'creation_date' ) ;
#20 = PLANE ( 'NONE',  #187 ) ;
#21 = CARTESIAN_POINT ( 'NONE',  ( 1.745740669421566678E-14, -6.123233995736765296E-16, 5.000000000000000000 ) ) ;
#22 = DIRECTION ( 'NONE',  ( -3.491481338843133355E-15, 1.224646799147352961E-16, -1.000000000000000000 ) ) ;
#23 = MANIFOLD_SOLID_BREP ( 'Corps-Déplacer/Copier1[1]', #262 ) ;
#24 = CARTESIAN_POINT ( 'NONE',  ( 0.0000000000000000000, 0.0000000000000000000, 0.0000000000000000000 ) ) ;
#25 = FACE_OUTER_BOUND ( 'NONE', #88, .T. ) ;
#26 = DIRECTION ( 'NONE',  ( -3.491481338843133355E-15, 1.224646799147352961E-16, -1.000000000000000000 ) ) ;
#27 = LOCAL_TIME ( 15, 49, 25.00000000000000000, #124 ) ;
#28 = CARTESIAN_POINT ( 'NONE',  ( 1.778094382859736416E-14, -6.236715546280332998E-16, 5.092664718204937380 ) ) ;
#29 = DIRECTION ( 'NONE',  ( 3.491481338843133355E-15, -1.224646799147352961E-16, 1.000000000000000000 ) ) ;
#30 = CARTESIAN_POINT ( 'NONE',  ( 6.982962677686267697E-16, 0.5034999999999992815, 0.2000000000000000111 ) ) ;
#31 = DIRECTION ( 'NONE',  ( 4.275831445896957731E-31, 1.000000000000000000, 1.224646799147352714E-16 ) ) ;
#32 = AXIS2_PLACEMENT_3D ( 'NONE', #303, #163, #233 ) ;
#33 = MECHANICAL_CONTEXT ( 'NONE', #14, 'mechanical' ) ;
#34 = COORDINATED_UNIVERSAL_TIME_OFFSET ( 1, 0, .AHEAD. ) ;
#35 = EDGE_LOOP ( 'NONE', ( #183 ) ) ;
#36 = EDGE_LOOP ( 'NONE', ( #301 ) ) ;
#37 = CONICAL_SURFACE ( 'NONE', #246, 1.499999999999997335, 0.1745329251994261477 ) ;
#38 = CALENDAR_DATE ( 2021, 29, 11 ) ;
#39 = ADVANCED_FACE ( 'NONE', ( #203, #45 ), #139, .F. ) ;
#40 = DATE_AND_TIME ( #13, #27 ) ;
#41 = ORIENTED_EDGE ( 'NONE', *, *, #142, .F. ) ;
#42 = ORGANIZATION ( 'UNSPECIFIED', 'UNSPECIFIED', '' ) ;
#43 = DIRECTION ( 'NONE',  ( 0.0000000000000000000, 1.000000000000000000, 0.0000000000000000000 ) ) ;
#44 = DIRECTION ( 'NONE',  ( 3.491481338843133355E-15, -1.224646799147352961E-16, 1.000000000000000000 ) ) ;
#45 = FACE_OUTER_BOUND ( 'NONE', #16, .T. ) ;
#46 = CIRCLE ( 'NONE', #231, 0.4499999999999994005 ) ;
#47 = CARTESIAN_POINT ( 'NONE',  ( -8.295753228747535811E-32, 2.909758538611634417E-33, -2.375998157703528926E-17 ) ) ;
#48 = EDGE_CURVE ( 'NONE', #114, #114, #164, .T. ) ;
#49 = DIRECTION ( 'NONE',  ( 4.275831445896957731E-31, 1.000000000000000000, 1.224646799147352714E-16 ) ) ;
#50 = CARTESIAN_POINT ( 'NONE',  ( 3.491481338843133355E-14, 0.4499999999999985678, 10.00000000000000000 ) ) ;
#51 = CARTESIAN_POINT ( 'NONE',  ( 1.326762908760390423E-13, 1.199999999999998845, 38.00000000000000000 ) ) ;
#52 = ADVANCED_FACE ( 'NONE', ( #258 ), #210, .F. ) ;
#53 = FACE_BOUND ( 'NONE', #230, .T. ) ;
#54 = FACE_OUTER_BOUND ( 'NONE', #82, .T. ) ;
#55 = AXIS2_PLACEMENT_3D ( 'NONE', #24, #85, #281 ) ;
#56 = EDGE_CURVE ( 'NONE', #7, #7, #77, .T. ) ;
#57 =( NAMED_UNIT ( * ) PLANE_ANGLE_UNIT ( ) SI_UNIT ( $, .RADIAN. ) );
#58 = PERSON_AND_ORGANIZATION_ROLE ( 'design_supplier' ) ;
#59 = ADVANCED_FACE ( 'NONE', ( #25 ), #275, .F. ) ;
#60 = AXIS2_PLACEMENT_3D ( 'NONE', #21, #278, #67 ) ;
#61 = AXIS2_PLACEMENT_3D ( 'NONE', #122, #26, #146 ) ;
#62 = APPROVAL_STATUS ( 'not_yet_approved' ) ;
#63 = EDGE_LOOP ( 'NONE', ( #178 ) ) ;
#64 = CARTESIAN_POINT ( 'NONE',  ( 1.745740669421566678E-14, 3.775645252851215909E-33, 5.000000000000000000 ) ) ;
#65 = APPROVAL_PERSON_ORGANIZATION ( #79, #75, #130 ) ;
#66 = DIRECTION ( 'NONE',  ( 0.0000000000000000000, 1.000000000000000000, 0.0000000000000000000 ) ) ;
#67 = DIRECTION ( 'NONE',  ( 0.0000000000000000000, 1.000000000000000000, 0.0000000000000000000 ) ) ;
#68 = ORIENTED_EDGE ( 'NONE', *, *, #142, .T. ) ;
#69 = DIRECTION ( 'NONE',  ( -4.275831445896957731E-31, -1.000000000000000000, -1.224646799147352961E-16 ) ) ;
#70 = CARTESIAN_POINT ( 'NONE',  ( 1.326762908760390423E-13, -4.653657836759941152E-15, 38.00000000000000000 ) ) ;
#71 = DIRECTION ( 'NONE',  ( -3.491481338843133355E-15, 1.224646799147352961E-16, -1.000000000000000000 ) ) ;
#72 = FACE_OUTER_BOUND ( 'NONE', #63, .T. ) ;
#73 = FACE_OUTER_BOUND ( 'NONE', #35, .T. ) ;
#74 = CARTESIAN_POINT ( 'NONE',  ( 1.745740669421566678E-14, -6.123233995736765296E-16, 5.000000000000000000 ) ) ;
#75 = APPROVAL ( #175, 'UNSPECIFIED' ) ;
#76 = CALENDAR_DATE ( 2021, 29, 11 ) ;
#77 = CIRCLE ( 'NONE', #93, 1.499999999999997335 ) ;
#78 =( NAMED_UNIT ( * ) SI_UNIT ( $, .STERADIAN. ) SOLID_ANGLE_UNIT ( ) );
#79 = PERSON_AND_ORGANIZATION ( #286, #42 ) ;
#80 = CC_DESIGN_SECURITY_CLASSIFICATION ( #181, ( #197 ) ) ;
#81 = CARTESIAN_POINT ( 'NONE',  ( 0.0000000000000000000, 0.0000000000000000000, 0.0000000000000000000 ) ) ;
#82 = EDGE_LOOP ( 'NONE', ( #108 ) ) ;
#83 = DIRECTION ( 'NONE',  ( -3.491481338843133355E-15, 1.224646799147352961E-16, -1.000000000000000000 ) ) ;
#84 = DIRECTION ( 'NONE',  ( -3.491481338843133355E-15, 1.224646799147352961E-16, -1.000000000000000000 ) ) ;
#85 = DIRECTION ( 'NONE',  ( -3.491481338843133355E-15, 1.224646799147352961E-16, -1.000000000000000000 ) ) ;
#86 = CYLINDRICAL_SURFACE ( 'NONE', #55, 1.500000000000000444 ) ;
#87 = SHAPE_DEFINITION_REPRESENTATION ( #255, #101 ) ;
#88 = EDGE_LOOP ( 'NONE', ( #253 ) ) ;
#89 = CIRCLE ( 'NONE', #61, 0.4803844939755805843 ) ;
#90 = FACE_BOUND ( 'NONE', #294, .T. ) ;
#91 = DIRECTION ( 'NONE',  ( 3.491481338843133355E-15, -1.224646799147352961E-16, 1.000000000000000000 ) ) ;
#92 = VERTEX_POINT ( 'NONE', #282 ) ;
#93 = AXIS2_PLACEMENT_3D ( 'NONE', #112, #208, #43 ) ;
#94 = FACE_OUTER_BOUND ( 'NONE', #223, .T. ) ;
#95 = ADVANCED_FACE ( 'NONE', ( #186, #4 ), #86, .T. ) ;
#96 = PLANE ( 'NONE',  #121 ) ;
#97 = DIRECTION ( 'NONE',  ( 1.000000000000000000, 0.0000000000000000000, 0.0000000000000000000 ) ) ;
#98 = LOCAL_TIME ( 15, 49, 25.00000000000000000, #289 ) ;
#99 = LOCAL_TIME ( 15, 49, 25.00000000000000000, #34 ) ;
#100 = CC_DESIGN_PERSON_AND_ORGANIZATION_ASSIGNMENT ( #152, #58, ( #197 ) ) ;
#101 = ADVANCED_BREP_SHAPE_REPRESENTATION ( '200038', ( #23, #225, #276 ), #242 ) ;
#102 = PERSON_AND_ORGANIZATION ( #286, #42 ) ;
#103 = ORIENTED_EDGE ( 'NONE', *, *, #247, .F. ) ;
#104 = PERSON_AND_ORGANIZATION_ROLE ( 'creator' ) ;
#105 = EDGE_CURVE ( 'NONE', #92, #92, #11, .T. ) ;
#106 = ORIENTED_EDGE ( 'NONE', *, *, #105, .T. ) ;
#107 = DIRECTION ( 'NONE',  ( 0.0000000000000000000, 1.000000000000000000, 0.0000000000000000000 ) ) ;
#108 = ORIENTED_EDGE ( 'NONE', *, *, #247, .T. ) ;
#109 = EDGE_CURVE ( 'NONE', #240, #240, #201, .T. ) ;
#110 = CIRCLE ( 'NONE', #153, 0.5034999999999999476 ) ;
#111 = DATE_AND_TIME ( #132, #135 ) ;
#112 = CARTESIAN_POINT ( 'NONE',  ( 5.631697683309561963E-14, -1.975333639880147799E-15, 16.12982323765066539 ) ) ;
#113 = ORIENTED_EDGE ( 'NONE', *, *, #48, .F. ) ;
#114 = VERTEX_POINT ( 'NONE', #167 ) ;
#115 = LOCAL_TIME ( 15, 49, 25.00000000000000000, #296 ) ;
#116 = APPROVAL ( #62, 'UNSPECIFIED' ) ;
#117 = VERTEX_POINT ( 'NONE', #51 ) ;
#118 = UNCERTAINTY_MEASURE_WITH_UNIT (LENGTH_MEASURE( 1.000000000000000082E-05 ), #244, 'distance_accuracy_value', 'NONE');
#119 = FACE_OUTER_BOUND ( 'NONE', #249, .T. ) ;
#120 = DIRECTION ( 'NONE',  ( 3.825084298683691316E-31, 1.000000000000000000, 1.076665513888287952E-16 ) ) ;
#121 = AXIS2_PLACEMENT_3D ( 'NONE', #236, #194, #287 ) ;
#122 = CARTESIAN_POINT ( 'NONE',  ( 3.612739213212769742E-14, -1.267178336138866772E-15, 10.34729635533384773 ) ) ;
#123 = APPLICATION_CONTEXT ( 'configuration controlled 3d designs of mechanical parts and assemblies' ) ;
#124 = COORDINATED_UNIVERSAL_TIME_OFFSET ( 1, 0, .AHEAD. ) ;
#125 = ORIENTED_EDGE ( 'NONE', *, *, #56, .T. ) ;
#126 = APPLICATION_PROTOCOL_DEFINITION ( 'international standard', 'config_control_design', 1994, #14 ) ;
#127 = AXIS2_PLACEMENT_3D ( 'NONE', #257, #83, #227 ) ;
#128 = ADVANCED_FACE ( 'NONE', ( #162 ), #20, .T. ) ;
#129 = EDGE_LOOP ( 'NONE', ( #273 ) ) ;
#130 = APPROVAL_ROLE ( '' ) ;
#131 = EDGE_LOOP ( 'NONE', ( #125 ) ) ;
#132 = CALENDAR_DATE ( 2021, 29, 11 ) ;
#133 = APPROVAL ( #220, 'UNSPECIFIED' ) ;
#134 = AXIS2_PLACEMENT_3D ( 'NONE', #70, #12, #284 ) ;
#135 = LOCAL_TIME ( 15, 49, 25.00000000000000000, #155 ) ;
#136 = DIRECTION ( 'NONE',  ( -3.491481338843133355E-15, 1.224646799147352961E-16, -1.000000000000000000 ) ) ;
#137 = FACE_BOUND ( 'NONE', #36, .T. ) ;
#138 = CARTESIAN_POINT ( 'NONE',  ( 3.491481338843133355E-14, -1.224646799147353059E-15, 10.00000000000000000 ) ) ;
#139 = TOROIDAL_SURFACE ( 'NONE', #32, 2.449999999999999734, 2.000000000000000444 ) ;
#140 = EDGE_LOOP ( 'NONE', ( #156 ) ) ;
#141 = DIRECTION ( 'NONE',  ( -3.491481338843133355E-15, 1.224646799147352961E-16, -1.000000000000000000 ) ) ;
#142 = EDGE_CURVE ( 'NONE', #216, #216, #285, .T. ) ;
#143 = CARTESIAN_POINT ( 'NONE',  ( 6.982962677686265724E-16, -2.449293598294705305E-17, 0.1999999999999999556 ) ) ;
#144 = CC_DESIGN_APPROVAL ( #75, ( #197 ) ) ;
#145 = DIRECTION ( 'NONE',  ( -3.825084298683691316E-31, -1.000000000000000000, -1.076665513888287952E-16 ) ) ;
#146 = DIRECTION ( 'NONE',  ( 0.0000000000000000000, 1.000000000000000000, 0.0000000000000000000 ) ) ;
#147 = DIRECTION ( 'NONE',  ( 4.275831445896957731E-31, 1.000000000000000000, 1.224646799147352961E-16 ) ) ;
#148 = AXIS2_PLACEMENT_3D ( 'NONE', #263, #141, #31 ) ;
#149 = DIRECTION ( 'NONE',  ( 0.0000000000000000000, 0.0000000000000000000, 1.000000000000000000 ) ) ;
#150 = PERSON_AND_ORGANIZATION_ROLE ( 'creator' ) ;
#151 = PERSON_AND_ORGANIZATION ( #286, #42 ) ;
#152 = PERSON_AND_ORGANIZATION ( #286, #42 ) ;
#153 = AXIS2_PLACEMENT_3D ( 'NONE', #74, #189, #9 ) ;
#154 = ORIENTED_EDGE ( 'NONE', *, *, #182, .F. ) ;
#155 = COORDINATED_UNIVERSAL_TIME_OFFSET ( 1, 0, .AHEAD. ) ;
#156 = ORIENTED_EDGE ( 'NONE', *, *, #56, .F. ) ;
#157 = ADVANCED_FACE ( 'NONE', ( #205, #209 ), #280, .T. ) ;
#158 = CIRCLE ( 'NONE', #291, 0.5034999999999992815 ) ;
#159 = DIRECTION ( 'NONE',  ( -4.275831445896957731E-31, -1.000000000000000000, -1.224646799147352961E-16 ) ) ;
#160 = EDGE_LOOP ( 'NONE', ( #41 ) ) ;
#161 = PRODUCT_DEFINITION ( 'UNKNOWN', '', #197, #190 ) ;
#162 = FACE_OUTER_BOUND ( 'NONE', #290, .T. ) ;
#163 = DIRECTION ( 'NONE',  ( -3.491481338843133355E-15, 1.224646799147352961E-16, -1.000000000000000000 ) ) ;
#164 = CIRCLE ( 'NONE', #127, 1.500000000000003331 ) ;
#165 = CARTESIAN_POINT ( 'NONE',  ( -1.659150645749507162E-31, 5.819517077223268835E-33, -4.751996315407057853E-17 ) ) ;
#166 = ADVANCED_FACE ( 'NONE', ( #137, #254 ), #37, .T. ) ;
#167 = CARTESIAN_POINT ( 'NONE',  ( 1.316288464743861212E-13, 1.499999999999998668, 37.69999999999999574 ) ) ;
#168 = CARTESIAN_POINT ( 'NONE',  ( 1.778094382859736416E-14, -6.236715546280332998E-16, 5.092664718204937380 ) ) ;
#169 = CARTESIAN_POINT ( 'NONE',  ( 1.745740669421566678E-14, 0.5034999999999992815, 5.000000000000000000 ) ) ;
#170 = VERTEX_POINT ( 'NONE', #198 ) ;
#171 = CYLINDRICAL_SURFACE ( 'NONE', #193, 0.4499999999999996225 ) ;
#172 = DATE_TIME_ROLE ( 'classification_date' ) ;
#173 = CC_DESIGN_DATE_AND_TIME_ASSIGNMENT ( #300, #172, ( #181 ) ) ;
#174 = PERSON_AND_ORGANIZATION ( #286, #42 ) ;
#175 = APPROVAL_STATUS ( 'not_yet_approved' ) ;
#176 = AXIS2_PLACEMENT_3D ( 'NONE', #184, #277, #66 ) ;
#177 = PERSON_AND_ORGANIZATION_ROLE ( 'design_owner' ) ;
#178 = ORIENTED_EDGE ( 'NONE', *, *, #268, .T. ) ;
#179 = EDGE_LOOP ( 'NONE', ( #103 ) ) ;
#180 = ORIENTED_EDGE ( 'NONE', *, *, #109, .F. ) ;
#181 = SECURITY_CLASSIFICATION ( '', '', #202 ) ;
#182 = EDGE_CURVE ( 'NONE', #261, #261, #46, .T. ) ;
#183 = ORIENTED_EDGE ( 'NONE', *, *, #268, .F. ) ;
#184 = CARTESIAN_POINT ( 'NONE',  ( 1.326762908760390423E-13, -4.653657836759941152E-15, 38.00000000000000000 ) ) ;
#185 = CC_DESIGN_PERSON_AND_ORGANIZATION_ASSIGNMENT ( #174, #177, ( #302 ) ) ;
#186 = FACE_OUTER_BOUND ( 'NONE', #140, .T. ) ;
#187 = AXIS2_PLACEMENT_3D ( 'NONE', #64, #44, #159 ) ;
#188 = CARTESIAN_POINT ( 'NONE',  ( 0.0000000000000000000, 0.0000000000000000000, 0.0000000000000000000 ) ) ;
#189 = DIRECTION ( 'NONE',  ( -3.491481338843133355E-15, 1.224646799147352961E-16, -1.000000000000000000 ) ) ;
#190 = DESIGN_CONTEXT ( 'detailed design', #123, 'design' ) ;
#191 = VERTEX_POINT ( 'NONE', #30 ) ;
#192 = CLOSED_SHELL ( 'NONE', ( #52, #215, #274, #128 ) ) ;
#193 = AXIS2_PLACEMENT_3D ( 'NONE', #188, #211, #147 ) ;
#194 = DIRECTION ( 'NONE',  ( 3.491481338843133355E-15, -1.224646799147352961E-16, 1.000000000000000000 ) ) ;
#195 = DIRECTION ( 'NONE',  ( -3.491481338843133355E-15, 1.224646799147352961E-16, -1.000000000000000000 ) ) ;
#196 = APPROVAL_ROLE ( '' ) ;
#197 = PRODUCT_DEFINITION_FORMATION_WITH_SPECIFIED_SOURCE ( 'ANY', '', #302, .NOT_KNOWN. ) ;
#198 = CARTESIAN_POINT ( 'NONE',  ( 3.612739213212769742E-14, 0.4803844939755793630, 10.34729635533384773 ) ) ;
#199 = PERSON_AND_ORGANIZATION_ROLE ( 'classification_officer' ) ;
#200 = EDGE_LOOP ( 'NONE', ( #113 ) ) ;
#201 = CIRCLE ( 'NONE', #2, 0.3880299461620758117 ) ;
#202 = SECURITY_CLASSIFICATION_LEVEL ( 'unclassified' ) ;
#203 = FACE_OUTER_BOUND ( 'NONE', #160, .T. ) ;
#204 = APPROVAL_DATE_TIME ( #111, #116 ) ;
#205 = FACE_OUTER_BOUND ( 'NONE', #200, .T. ) ;
#206 = CC_DESIGN_DATE_AND_TIME_ASSIGNMENT ( #245, #19, ( #161 ) ) ;
#207 = AXIS2_PLACEMENT_3D ( 'NONE', #47, #235, #69 ) ;
#208 = DIRECTION ( 'NONE',  ( -3.491481338843133355E-15, 1.224646799147352961E-16, -1.000000000000000000 ) ) ;
#209 = FACE_BOUND ( 'NONE', #221, .T. ) ;
#210 = PLANE ( 'NONE',  #207 ) ;
#211 = DIRECTION ( 'NONE',  ( -3.491481338843133355E-15, 1.224646799147352961E-16, -1.000000000000000000 ) ) ;
#212 = APPROVAL_PERSON_ORGANIZATION ( #222, #133, #196 ) ;
#213 = CARTESIAN_POINT ( 'NONE',  ( 5.631697683309561963E-14, 1.499999999999995559, 16.12982323765066539 ) ) ;
#214 = DIRECTION ( 'NONE',  ( -3.491481338843133355E-15, 1.224646799147352961E-16, -1.000000000000000000 ) ) ;
#215 = ADVANCED_FACE ( 'NONE', ( #90, #54 ), #217, .T. ) ;
#216 = VERTEX_POINT ( 'NONE', #50 ) ;
#217 = CONICAL_SURFACE ( 'NONE', #271, 0.5034999999999992815, 0.5235987755982925984 ) ;
#218 = CARTESIAN_POINT ( 'NONE',  ( 1.778094382859736416E-14, 0.4499999999999987343, 5.092664718204937380 ) ) ;
#219 = PERSON_AND_ORGANIZATION ( #286, #42 ) ;
#220 = APPROVAL_STATUS ( 'not_yet_approved' ) ;
#221 = EDGE_LOOP ( 'NONE', ( #248 ) ) ;
#222 = PERSON_AND_ORGANIZATION ( #286, #42 ) ;
#223 = EDGE_LOOP ( 'NONE', ( #106 ) ) ;
#224 = DATE_AND_TIME ( #38, #98 ) ;
#225 = MANIFOLD_SOLID_BREP ( 'Corps-Déplacer/Copier1[2]', #192 ) ;
#226 = CIRCLE ( 'NONE', #134, 1.200000000000003286 ) ;
#227 = DIRECTION ( 'NONE',  ( 0.0000000000000000000, 1.000000000000000000, 0.0000000000000000000 ) ) ;
#228 = ADVANCED_FACE ( 'NONE', ( #119, #237 ), #171, .T. ) ;
#229 = CARTESIAN_POINT ( 'NONE',  ( 1.326762908760390423E-13, 8.998558695971099120E-33, 38.00000000000000000 ) ) ;
#230 = EDGE_LOOP ( 'NONE', ( #279 ) ) ;
#231 = AXIS2_PLACEMENT_3D ( 'NONE', #168, #71, #264 ) ;
#232 = AXIS2_PLACEMENT_3D ( 'NONE', #229, #22, #3 ) ;
#233 = DIRECTION ( 'NONE',  ( 4.275831445896957731E-31, 1.000000000000000000, 1.224646799147352961E-16 ) ) ;
#234 = EDGE_CURVE ( 'NONE', #117, #117, #226, .T. ) ;
#235 = DIRECTION ( 'NONE',  ( 3.491481338843133355E-15, -1.224646799147352961E-16, 1.000000000000000000 ) ) ;
#236 = CARTESIAN_POINT ( 'NONE',  ( 1.745740669421566678E-14, 3.775645252851215909E-33, 5.000000000000000000 ) ) ;
#237 = FACE_OUTER_BOUND ( 'NONE', #252, .T. ) ;
#238 = CONICAL_SURFACE ( 'NONE', #256, 0.4499999999999994005, 0.5235987755982913772 ) ;
#239 = DIRECTION ( 'NONE',  ( 0.0000000000000000000, -1.000000000000000000, 0.0000000000000000000 ) ) ;
#240 = VERTEX_POINT ( 'NONE', #259 ) ;
#241 = DIRECTION ( 'NONE',  ( 0.0000000000000000000, 1.000000000000000000, 0.0000000000000000000 ) ) ;
#242 =( GEOMETRIC_REPRESENTATION_CONTEXT ( 3 ) GLOBAL_UNCERTAINTY_ASSIGNED_CONTEXT ( ( #118 ) ) GLOBAL_UNIT_ASSIGNED_CONTEXT ( ( #244, #57, #78 ) ) REPRESENTATION_CONTEXT ( 'NONE', 'WORKASPACE' ) );
#243 = ADVANCED_FACE ( 'NONE', ( #73, #53 ), #238, .T. ) ;
#244 =( LENGTH_UNIT ( ) NAMED_UNIT ( * ) SI_UNIT ( .MILLI., .METRE. ) );
#245 = DATE_AND_TIME ( #267, #115 ) ;
#246 = AXIS2_PLACEMENT_3D ( 'NONE', #288, #91, #239 ) ;
#247 = EDGE_CURVE ( 'NONE', #191, #191, #158, .T. ) ;
#248 = ORIENTED_EDGE ( 'NONE', *, *, #234, .T. ) ;
#249 = EDGE_LOOP ( 'NONE', ( #154 ) ) ;
#250 = CC_DESIGN_PERSON_AND_ORGANIZATION_ASSIGNMENT ( #151, #199, ( #181 ) ) ;
#251 = CC_DESIGN_APPROVAL ( #133, ( #161 ) ) ;
#252 = EDGE_LOOP ( 'NONE', ( #68 ) ) ;
#253 = ORIENTED_EDGE ( 'NONE', *, *, #234, .F. ) ;
#254 = FACE_OUTER_BOUND ( 'NONE', #131, .T. ) ;
#255 = PRODUCT_DEFINITION_SHAPE ( 'NONE', 'NONE',  #161 ) ;
#256 = AXIS2_PLACEMENT_3D ( 'NONE', #28, #195, #241 ) ;
#257 = CARTESIAN_POINT ( 'NONE',  ( 1.316288464743861212E-13, -4.616918432785520292E-15, 37.69999999999999574 ) ) ;
#258 = FACE_OUTER_BOUND ( 'NONE', #129, .T. ) ;
#259 = CARTESIAN_POINT ( 'NONE',  ( 0.0000000000000000000, 0.3880299461620758117, 0.0000000000000000000 ) ) ;
#260 = CC_DESIGN_PERSON_AND_ORGANIZATION_ASSIGNMENT ( #219, #150, ( #161 ) ) ;
#261 = VERTEX_POINT ( 'NONE', #218 ) ;
#262 = CLOSED_SHELL ( 'NONE', ( #299, #243, #228, #39, #166, #95, #157, #59 ) ) ;
#263 = CARTESIAN_POINT ( 'NONE',  ( 0.0000000000000000000, 0.0000000000000000000, 0.0000000000000000000 ) ) ;
#264 = DIRECTION ( 'NONE',  ( 0.0000000000000000000, 1.000000000000000000, 0.0000000000000000000 ) ) ;
#265 = CYLINDRICAL_SURFACE ( 'NONE', #148, 0.5034999999999996145 ) ;
#266 = APPROVAL_ROLE ( '' ) ;
#267 = CALENDAR_DATE ( 2021, 29, 11 ) ;
#268 = EDGE_CURVE ( 'NONE', #10, #10, #110, .T. ) ;
#269 = APPROVAL_DATE_TIME ( #224, #75 ) ;
#270 = EDGE_LOOP ( 'NONE', ( #298 ) ) ;
#271 = AXIS2_PLACEMENT_3D ( 'NONE', #143, #29, #145 ) ;
#272 = CC_DESIGN_APPROVAL ( #116, ( #181 ) ) ;
#273 = ORIENTED_EDGE ( 'NONE', *, *, #109, .T. ) ;
#274 = ADVANCED_FACE ( 'NONE', ( #8, #94 ), #265, .T. ) ;
#275 = PLANE ( 'NONE',  #232 ) ;
#276 = AXIS2_PLACEMENT_3D ( 'NONE', #81, #149, #97 ) ;
#277 = DIRECTION ( 'NONE',  ( -3.491481338843133355E-15, 1.224646799147352961E-16, -1.000000000000000000 ) ) ;
#278 = DIRECTION ( 'NONE',  ( -3.491481338843133355E-15, 1.224646799147352961E-16, -1.000000000000000000 ) ) ;
#279 = ORIENTED_EDGE ( 'NONE', *, *, #182, .T. ) ;
#280 = CONICAL_SURFACE ( 'NONE', #176, 1.200000000000003286, 0.7853981633974453924 ) ;
#281 = DIRECTION ( 'NONE',  ( 4.275831445896957731E-31, 1.000000000000000000, 1.224646799147353207E-16 ) ) ;
#282 = CARTESIAN_POINT ( 'NONE',  ( 1.745740669421566678E-14, 0.5034999999999992815, 5.000000000000000000 ) ) ;
#283 = CARTESIAN_POINT ( 'NONE',  ( 6.982962677686265724E-16, -2.449293598294705305E-17, 0.1999999999999999556 ) ) ;
#284 = DIRECTION ( 'NONE',  ( 0.0000000000000000000, 1.000000000000000000, 0.0000000000000000000 ) ) ;
#285 = CIRCLE ( 'NONE', #5, 0.4499999999999998446 ) ;
#286 = PERSON ( 'UNSPECIFIED', 'UNSPECIFIED', 'UNSPECIFIED', ('UNSPECIFIED'), ('UNSPECIFIED'), ('UNSPECIFIED') ) ;
#287 = DIRECTION ( 'NONE',  ( -4.275831445896957731E-31, -1.000000000000000000, -1.224646799147352961E-16 ) ) ;
#288 = CARTESIAN_POINT ( 'NONE',  ( 5.631697683309561963E-14, -1.975333639880147799E-15, 16.12982323765066539 ) ) ;
#289 = COORDINATED_UNIVERSAL_TIME_OFFSET ( 1, 0, .AHEAD. ) ;
#290 = EDGE_LOOP ( 'NONE', ( #15 ) ) ;
#291 = AXIS2_PLACEMENT_3D ( 'NONE', #283, #214, #120 ) ;
#292 = APPROVAL_PERSON_ORGANIZATION ( #297, #116, #266 ) ;
#293 = APPROVAL_DATE_TIME ( #40, #133 ) ;
#294 = EDGE_LOOP ( 'NONE', ( #180 ) ) ;
#295 = EDGE_CURVE ( 'NONE', #170, #170, #89, .T. ) ;
#296 = COORDINATED_UNIVERSAL_TIME_OFFSET ( 1, 0, .AHEAD. ) ;
#297 = PERSON_AND_ORGANIZATION ( #286, #42 ) ;
#298 = ORIENTED_EDGE ( 'NONE', *, *, #48, .T. ) ;
#299 = ADVANCED_FACE ( 'NONE', ( #72 ), #96, .F. ) ;
#300 = DATE_AND_TIME ( #76, #99 ) ;
#301 = ORIENTED_EDGE ( 'NONE', *, *, #295, .F. ) ;
#302 = PRODUCT ( '200038', '200038', '', ( #33 ) ) ;
#303 = CARTESIAN_POINT ( 'NONE',  ( 3.491481338843133355E-14, -1.301042606982605321E-15, 10.00000000000000000 ) ) ;
ENDSEC;
END-ISO-10303-21;
