ISO-10303-21;
HEADER;
FILE_DESCRIPTION (( 'STEP AP203' ),
    '1' );
FILE_NAME ('200037.step',
    '2021-11-29T14:49:25',
    ( '' ),
    ( '' ),
    'SwSTEP 2.0',
    'SolidWorks 2019',
    '' );
FILE_SCHEMA (( 'CONFIG_CONTROL_DESIGN' ));
ENDSEC;

DATA;
#1 = PERSON_AND_ORGANIZATION ( #176, #45 ) ;
#2 = AXIS2_PLACEMENT_3D ( 'NONE', #68, #40, #70 ) ;
#3 = CLOSED_SHELL ( 'NONE', ( #168, #207, #226, #267 ) ) ;
#4 = CARTESIAN_POINT ( 'NONE',  ( 3.612739213212769111E-14, -1.267178336138866575E-15, 10.34729635533384595 ) ) ;
#5 = ORIENTED_EDGE ( 'NONE', *, *, #191, .T. ) ;
#6 = ORIENTED_EDGE ( 'NONE', *, *, #161, .F. ) ;
#7 = DIRECTION ( 'NONE',  ( 0.0000000000000000000, 1.000000000000000000, 0.0000000000000000000 ) ) ;
#8 = FACE_OUTER_BOUND ( 'NONE', #28, .T. ) ;
#9 = EDGE_CURVE ( 'NONE', #43, #43, #151, .T. ) ;
#10 = CARTESIAN_POINT ( 'NONE',  ( -1.595013174061053458E-31, 5.594553109823991973E-33, -4.568299295534956511E-17 ) ) ;
#11 = AXIS2_PLACEMENT_3D ( 'NONE', #34, #126, #7 ) ;
#12 = PLANE ( 'NONE',  #82 ) ;
#13 = CARTESIAN_POINT ( 'NONE',  ( 1.326762908760390423E-13, 1.199999999999998845, 38.00000000000000000 ) ) ;
#14 = EDGE_CURVE ( 'NONE', #208, #208, #125, .T. ) ;
#15 = CARTESIAN_POINT ( 'NONE',  ( 5.661399445270336000E-14, 1.499999999999995559, 16.21489246494493131 ) ) ;
#16 = CONICAL_SURFACE ( 'NONE', #139, 0.4349999999999993872, 0.5235987755982918213 ) ;
#17 = DIRECTION ( 'NONE',  ( 0.0000000000000000000, 0.0000000000000000000, 1.000000000000000000 ) ) ;
#18 = APPROVAL ( #219, 'UNSPECIFIED' ) ;
#19 = PLANE ( 'NONE',  #190 ) ;
#20 = LOCAL_TIME ( 15, 49, 25.00000000000000000, #194 ) ;
#21 = PERSON_AND_ORGANIZATION ( #176, #45 ) ;
#22 = APPLICATION_CONTEXT ( 'configuration controlled 3d designs of mechanical parts and assemblies' ) ;
#23 = EDGE_LOOP ( 'NONE', ( #241 ) ) ;
#24 = CC_DESIGN_DATE_AND_TIME_ASSIGNMENT ( #46, #144, ( #79 ) ) ;
#25 = EDGE_LOOP ( 'NONE', ( #33 ) ) ;
#26 = LOCAL_TIME ( 15, 49, 25.00000000000000000, #72 ) ;
#27 = APPLICATION_PROTOCOL_DEFINITION ( 'international standard', 'config_control_design', 1994, #22 ) ;
#28 = EDGE_LOOP ( 'NONE', ( #197 ) ) ;
#29 = CIRCLE ( 'NONE', #205, 1.499999999999997335 ) ;
#30 = MANIFOLD_SOLID_BREP ( 'Corps-Déplacer/Copier1[1]', #131 ) ;
#31 = APPROVAL_STATUS ( 'not_yet_approved' ) ;
#32 = ORIENTED_EDGE ( 'NONE', *, *, #109, .F. ) ;
#33 = ORIENTED_EDGE ( 'NONE', *, *, #14, .F. ) ;
#34 = CARTESIAN_POINT ( 'NONE',  ( 1.745740669421566678E-14, -6.123233995736765296E-16, 5.000000000000000000 ) ) ;
#35 = DIRECTION ( 'NONE',  ( 0.0000000000000000000, 1.000000000000000000, 0.0000000000000000000 ) ) ;
#36 = FACE_OUTER_BOUND ( 'NONE', #262, .T. ) ;
#37 = DIRECTION ( 'NONE',  ( 3.942538268960569917E-31, 1.000000000000000000, 1.109725867436546438E-16 ) ) ;
#38 = LOCAL_TIME ( 15, 49, 25.00000000000000000, #285 ) ;
#39 = CARTESIAN_POINT ( 'NONE',  ( 1.316288464743861212E-13, -4.616918432785520292E-15, 37.69999999999999574 ) ) ;
#40 = DIRECTION ( 'NONE',  ( -3.491481338843133355E-15, 1.224646799147352961E-16, -1.000000000000000000 ) ) ;
#41 = CARTESIAN_POINT ( 'NONE',  ( 1.316288464743861212E-13, 1.499999999999998668, 37.69999999999999574 ) ) ;
#42 = FACE_BOUND ( 'NONE', #216, .T. ) ;
#43 = VERTEX_POINT ( 'NONE', #135 ) ;
#44 = CARTESIAN_POINT ( 'NONE',  ( 3.491481338843133355E-14, 0.4349999999999987765, 10.00000000000000000 ) ) ;
#45 = ORGANIZATION ( 'UNSPECIFIED', 'UNSPECIFIED', '' ) ;
#46 = DATE_AND_TIME ( #50, #26 ) ;
#47 = CARTESIAN_POINT ( 'NONE',  ( 1.778094382859736416E-14, -6.236715546280332998E-16, 5.092664718204937380 ) ) ;
#48 = PERSON_AND_ORGANIZATION_ROLE ( 'creator' ) ;
#49 = ORIENTED_EDGE ( 'NONE', *, *, #9, .F. ) ;
#50 = CALENDAR_DATE ( 2021, 29, 11 ) ;
#51 = EDGE_LOOP ( 'NONE', ( #142 ) ) ;
#52 = PERSON_AND_ORGANIZATION_ROLE ( 'design_owner' ) ;
#53 = ORIENTED_EDGE ( 'NONE', *, *, #275, .F. ) ;
#54 = CC_DESIGN_PERSON_AND_ORGANIZATION_ASSIGNMENT ( #283, #196, ( #203 ) ) ;
#55 = AXIS2_PLACEMENT_3D ( 'NONE', #224, #156, #266 ) ;
#56 = PERSON_AND_ORGANIZATION ( #176, #45 ) ;
#57 = FACE_OUTER_BOUND ( 'NONE', #73, .T. ) ;
#58 = DIRECTION ( 'NONE',  ( -3.491481338843133355E-15, 1.224646799147352961E-16, -1.000000000000000000 ) ) ;
#59 = DIRECTION ( 'NONE',  ( -4.275831445896957731E-31, -1.000000000000000000, -1.224646799147352961E-16 ) ) ;
#60 = FACE_OUTER_BOUND ( 'NONE', #23, .T. ) ;
#61 = DIRECTION ( 'NONE',  ( -3.491481338843133355E-15, 1.224646799147352961E-16, -1.000000000000000000 ) ) ;
#62 = PLANE ( 'NONE',  #55 ) ;
#63 = CC_DESIGN_APPROVAL ( #221, ( #203 ) ) ;
#64 = CARTESIAN_POINT ( 'NONE',  ( 1.745740669421566678E-14, 0.4884999999999993792, 5.000000000000000000 ) ) ;
#65 = UNCERTAINTY_MEASURE_WITH_UNIT (LENGTH_MEASURE( 1.000000000000000082E-05 ), #274, 'distance_accuracy_value', 'NONE');
#66 = CARTESIAN_POINT ( 'NONE',  ( 1.745740669421566678E-14, 3.663163269151575767E-33, 5.000000000000000000 ) ) ;
#67 = ADVANCED_FACE ( 'NONE', ( #287, #57 ), #105, .T. ) ;
#68 = CARTESIAN_POINT ( 'NONE',  ( 3.491481338843133355E-14, -1.224646799147353059E-15, 10.00000000000000000 ) ) ;
#69 = CIRCLE ( 'NONE', #159, 1.500000000000003331 ) ;
#70 = DIRECTION ( 'NONE',  ( 0.0000000000000000000, 1.000000000000000000, 0.0000000000000000000 ) ) ;
#71 =( NAMED_UNIT ( * ) PLANE_ANGLE_UNIT ( ) SI_UNIT ( $, .RADIAN. ) );
#72 = COORDINATED_UNIVERSAL_TIME_OFFSET ( 1, 0, .AHEAD. ) ;
#73 = EDGE_LOOP ( 'NONE', ( #98 ) ) ;
#74 = APPROVAL ( #31, 'UNSPECIFIED' ) ;
#75 = PERSON_AND_ORGANIZATION_ROLE ( 'classification_officer' ) ;
#76 = ORIENTED_EDGE ( 'NONE', *, *, #234, .T. ) ;
#77 = APPROVAL_STATUS ( 'not_yet_approved' ) ;
#78 = ORIENTED_EDGE ( 'NONE', *, *, #275, .T. ) ;
#79 = PRODUCT_DEFINITION ( 'UNKNOWN', '', #203, #249 ) ;
#80 = CALENDAR_DATE ( 2021, 29, 11 ) ;
#81 = CARTESIAN_POINT ( 'NONE',  ( 5.661399445270336000E-14, -1.985751615571334165E-15, 16.21489246494493131 ) ) ;
#82 = AXIS2_PLACEMENT_3D ( 'NONE', #200, #58, #150 ) ;
#83 = DIRECTION ( 'NONE',  ( -3.491481338843133355E-15, 1.224646799147352961E-16, -1.000000000000000000 ) ) ;
#84 = DIRECTION ( 'NONE',  ( -3.491481338843133355E-15, 1.224646799147352961E-16, -1.000000000000000000 ) ) ;
#85 = FACE_BOUND ( 'NONE', #286, .T. ) ;
#86 = PRODUCT_DEFINITION_SHAPE ( 'NONE', 'NONE',  #79 ) ;
#87 = FACE_BOUND ( 'NONE', #170, .T. ) ;
#88 = DIRECTION ( 'NONE',  ( 3.491481338843133355E-15, -1.224646799147352961E-16, 1.000000000000000000 ) ) ;
#89 = APPLICATION_CONTEXT ( 'configuration controlled 3d designs of mechanical parts and assemblies' ) ;
#90 = CC_DESIGN_SECURITY_CLASSIFICATION ( #232, ( #203 ) ) ;
#91 = CARTESIAN_POINT ( 'NONE',  ( 1.745740669421566678E-14, 0.4884999999999993792, 5.000000000000000000 ) ) ;
#92 = VERTEX_POINT ( 'NONE', #91 ) ;
#93 = CARTESIAN_POINT ( 'NONE',  ( 0.0000000000000000000, 0.0000000000000000000, 0.0000000000000000000 ) ) ;
#94 = APPROVAL_PERSON_ORGANIZATION ( #143, #18, #96 ) ;
#95 = FACE_OUTER_BOUND ( 'NONE', #174, .T. ) ;
#96 = APPROVAL_ROLE ( '' ) ;
#97 = COORDINATED_UNIVERSAL_TIME_OFFSET ( 1, 0, .AHEAD. ) ;
#98 = ORIENTED_EDGE ( 'NONE', *, *, #185, .T. ) ;
#99 = EDGE_LOOP ( 'NONE', ( #49 ) ) ;
#100 = CC_DESIGN_PERSON_AND_ORGANIZATION_ASSIGNMENT ( #56, #48, ( #79 ) ) ;
#101 = ORIENTED_EDGE ( 'NONE', *, *, #185, .F. ) ;
#102 = APPROVAL_ROLE ( '' ) ;
#103 = LOCAL_TIME ( 15, 49, 25.00000000000000000, #97 ) ;
#104 = DIRECTION ( 'NONE',  ( 0.0000000000000000000, 1.000000000000000000, 0.0000000000000000000 ) ) ;
#105 = CONICAL_SURFACE ( 'NONE', #253, 1.499999999999997335, 0.1745329251994262310 ) ;
#106 = FACE_OUTER_BOUND ( 'NONE', #51, .T. ) ;
#107 = CARTESIAN_POINT ( 'NONE',  ( 0.0000000000000000000, 0.0000000000000000000, 0.0000000000000000000 ) ) ;
#108 = CONICAL_SURFACE ( 'NONE', #277, 0.4884999999999993792, 0.5235987755982923764 ) ;
#109 = EDGE_CURVE ( 'NONE', #248, #248, #120, .T. ) ;
#110 = DIRECTION ( 'NONE',  ( 0.0000000000000000000, 1.000000000000000000, 0.0000000000000000000 ) ) ;
#111 = DIRECTION ( 'NONE',  ( -3.491481338843133355E-15, 1.224646799147352961E-16, -1.000000000000000000 ) ) ;
#112 = CC_DESIGN_PERSON_AND_ORGANIZATION_ASSIGNMENT ( #257, #52, ( #218 ) ) ;
#113 = DIRECTION ( 'NONE',  ( 1.000000000000000000, 0.0000000000000000000, 0.0000000000000000000 ) ) ;
#114 = TOROIDAL_SURFACE ( 'NONE', #292, 2.435000000000000053, 2.000000000000000444 ) ;
#115 = CALENDAR_DATE ( 2021, 29, 11 ) ;
#116 = SHAPE_DEFINITION_REPRESENTATION ( #86, #251 ) ;
#117 = EDGE_LOOP ( 'NONE', ( #53 ) ) ;
#118 = EDGE_LOOP ( 'NONE', ( #164 ) ) ;
#119 = DATE_AND_TIME ( #214, #103 ) ;
#120 = CIRCLE ( 'NONE', #282, 0.4884999999999999898 ) ;
#121 = DIRECTION ( 'NONE',  ( 0.0000000000000000000, 1.000000000000000000, 0.0000000000000000000 ) ) ;
#122 = DIRECTION ( 'NONE',  ( 0.0000000000000000000, 1.000000000000000000, 0.0000000000000000000 ) ) ;
#123 = ORIENTED_EDGE ( 'NONE', *, *, #211, .F. ) ;
#124 = CARTESIAN_POINT ( 'NONE',  ( -7.975065870305267288E-32, 2.797276554911995986E-33, -2.284149647767478256E-17 ) ) ;
#125 = CIRCLE ( 'NONE', #259, 0.4653844939755801269 ) ;
#126 = DIRECTION ( 'NONE',  ( -3.491481338843133355E-15, 1.224646799147352961E-16, -1.000000000000000000 ) ) ;
#127 = CYLINDRICAL_SURFACE ( 'NONE', #209, 1.500000000000000444 ) ;
#128 = ADVANCED_FACE ( 'NONE', ( #153 ), #12, .F. ) ;
#129 = MANIFOLD_SOLID_BREP ( 'Corps-Déplacer/Copier1[2]', #3 ) ;
#130 = FACE_OUTER_BOUND ( 'NONE', #145, .T. ) ;
#131 = CLOSED_SHELL ( 'NONE', ( #179, #299, #239, #215, #67, #231, #152, #128 ) ) ;
#132 = FACE_OUTER_BOUND ( 'NONE', #264, .T. ) ;
#133 = DIRECTION ( 'NONE',  ( 0.0000000000000000000, 1.000000000000000000, 0.0000000000000000000 ) ) ;
#134 = PRODUCT_RELATED_PRODUCT_CATEGORY ( 'detail', '', ( #218 ) ) ;
#135 = CARTESIAN_POINT ( 'NONE',  ( 1.778094382859736416E-14, 0.4349999999999987765, 5.092664718204937380 ) ) ;
#136 =( NAMED_UNIT ( * ) SI_UNIT ( $, .STERADIAN. ) SOLID_ANGLE_UNIT ( ) );
#137 = VERTEX_POINT ( 'NONE', #15 ) ;
#138 = DIRECTION ( 'NONE',  ( 4.275831445896958607E-31, 1.000000000000000000, 1.224646799147352961E-16 ) ) ;
#139 = AXIS2_PLACEMENT_3D ( 'NONE', #300, #255, #158 ) ;
#140 = CONICAL_SURFACE ( 'NONE', #293, 1.200000000000003286, 0.7853981633974453924 ) ;
#141 = CALENDAR_DATE ( 2021, 29, 11 ) ;
#142 = ORIENTED_EDGE ( 'NONE', *, *, #14, .T. ) ;
#143 = PERSON_AND_ORGANIZATION ( #176, #45 ) ;
#144 = DATE_TIME_ROLE ( 'creation_date' ) ;
#145 = EDGE_LOOP ( 'NONE', ( #236 ) ) ;
#146 = ORIENTED_EDGE ( 'NONE', *, *, #211, .T. ) ;
#147 = CC_DESIGN_DATE_AND_TIME_ASSIGNMENT ( #263, #281, ( #232 ) ) ;
#148 = CARTESIAN_POINT ( 'NONE',  ( 5.661399445270336000E-14, -1.985751615571334165E-15, 16.21489246494493131 ) ) ;
#149 = AXIS2_PLACEMENT_3D ( 'NONE', #93, #111, #138 ) ;
#150 = DIRECTION ( 'NONE',  ( 4.275831445896957731E-31, 1.000000000000000000, 1.224646799147352961E-16 ) ) ;
#151 = CIRCLE ( 'NONE', #173, 0.4349999999999993872 ) ;
#152 = ADVANCED_FACE ( 'NONE', ( #225, #85 ), #140, .T. ) ;
#153 = FACE_OUTER_BOUND ( 'NONE', #117, .T. ) ;
#154 = DIRECTION ( 'NONE',  ( 4.275831445896957731E-31, 1.000000000000000000, 1.224646799147352961E-16 ) ) ;
#155 = LOCAL_TIME ( 15, 49, 25.00000000000000000, #279 ) ;
#156 = DIRECTION ( 'NONE',  ( 3.491481338843133355E-15, -1.224646799147352961E-16, 1.000000000000000000 ) ) ;
#157 = VERTEX_POINT ( 'NONE', #213 ) ;
#158 = DIRECTION ( 'NONE',  ( 0.0000000000000000000, 1.000000000000000000, 0.0000000000000000000 ) ) ;
#159 = AXIS2_PLACEMENT_3D ( 'NONE', #39, #83, #35 ) ;
#160 = VERTEX_POINT ( 'NONE', #254 ) ;
#161 = EDGE_CURVE ( 'NONE', #157, #157, #166, .T. ) ;
#162 = MECHANICAL_CONTEXT ( 'NONE', #89, 'mechanical' ) ;
#163 = SECURITY_CLASSIFICATION_LEVEL ( 'unclassified' ) ;
#164 = ORIENTED_EDGE ( 'NONE', *, *, #191, .F. ) ;
#165 = APPROVAL_PERSON_ORGANIZATION ( #233, #74, #102 ) ;
#166 = CIRCLE ( 'NONE', #187, 0.3730299461620759094 ) ;
#167 = ORIENTED_EDGE ( 'NONE', *, *, #9, .T. ) ;
#168 = ADVANCED_FACE ( 'NONE', ( #8 ), #178, .F. ) ;
#169 = PERSON_AND_ORGANIZATION ( #176, #45 ) ;
#170 = EDGE_LOOP ( 'NONE', ( #6 ) ) ;
#171 = EDGE_LOOP ( 'NONE', ( #101 ) ) ;
#172 = APPROVAL_DATE_TIME ( #261, #18 ) ;
#173 = AXIS2_PLACEMENT_3D ( 'NONE', #47, #220, #121 ) ;
#174 = EDGE_LOOP ( 'NONE', ( #123 ) ) ;
#175 = CC_DESIGN_PERSON_AND_ORGANIZATION_ASSIGNMENT ( #21, #235, ( #203 ) ) ;
#176 = PERSON ( 'UNSPECIFIED', 'UNSPECIFIED', 'UNSPECIFIED', ('UNSPECIFIED'), ('UNSPECIFIED'), ('UNSPECIFIED') ) ;
#177 = FACE_OUTER_BOUND ( 'NONE', #189, .T. ) ;
#178 = PLANE ( 'NONE',  #294 ) ;
#179 = ADVANCED_FACE ( 'NONE', ( #130 ), #62, .F. ) ;
#180 = DIRECTION ( 'NONE',  ( 4.275831445896957731E-31, 1.000000000000000000, 1.224646799147352961E-16 ) ) ;
#181 = DIRECTION ( 'NONE',  ( 4.275831445896957731E-31, 1.000000000000000000, 1.224646799147353207E-16 ) ) ;
#182 = CARTESIAN_POINT ( 'NONE',  ( 1.326762908760390423E-13, -4.653657836759941152E-15, 38.00000000000000000 ) ) ;
#183 = AXIS2_PLACEMENT_3D ( 'NONE', #206, #61, #37 ) ;
#184 = FACE_OUTER_BOUND ( 'NONE', #258, .T. ) ;
#185 = EDGE_CURVE ( 'NONE', #137, #137, #29, .T. ) ;
#186 = VERTEX_POINT ( 'NONE', #13 ) ;
#187 = AXIS2_PLACEMENT_3D ( 'NONE', #10, #247, #154 ) ;
#188 = DIRECTION ( 'NONE',  ( -4.275831445896957731E-31, -1.000000000000000000, -1.224646799147352961E-16 ) ) ;
#189 = EDGE_LOOP ( 'NONE', ( #146 ) ) ;
#190 = AXIS2_PLACEMENT_3D ( 'NONE', #66, #212, #188 ) ;
#191 = EDGE_CURVE ( 'NONE', #298, #298, #69, .T. ) ;
#192 = DATE_AND_TIME ( #80, #20 ) ;
#193 = ORIENTED_EDGE ( 'NONE', *, *, #260, .T. ) ;
#194 = COORDINATED_UNIVERSAL_TIME_OFFSET ( 1, 0, .AHEAD. ) ;
#195 = DIRECTION ( 'NONE',  ( -3.491481338843133355E-15, 1.224646799147352961E-16, -1.000000000000000000 ) ) ;
#196 = PERSON_AND_ORGANIZATION_ROLE ( 'design_supplier' ) ;
#197 = ORIENTED_EDGE ( 'NONE', *, *, #161, .T. ) ;
#198 = AXIS2_PLACEMENT_3D ( 'NONE', #228, #227, #269 ) ;
#199 = DIRECTION ( 'NONE',  ( -3.491481338843133355E-15, 1.224646799147352961E-16, -1.000000000000000000 ) ) ;
#200 = CARTESIAN_POINT ( 'NONE',  ( 1.326762908760390423E-13, 8.998558695971099120E-33, 38.00000000000000000 ) ) ;
#201 = CYLINDRICAL_SURFACE ( 'NONE', #198, 0.4884999999999996567 ) ;
#202 =( GEOMETRIC_REPRESENTATION_CONTEXT ( 3 ) GLOBAL_UNCERTAINTY_ASSIGNED_CONTEXT ( ( #65 ) ) GLOBAL_UNIT_ASSIGNED_CONTEXT ( ( #274, #71, #136 ) ) REPRESENTATION_CONTEXT ( 'NONE', 'WORKASPACE' ) );
#203 = PRODUCT_DEFINITION_FORMATION_WITH_SPECIFIED_SOURCE ( 'ANY', '', #218, .NOT_KNOWN. ) ;
#204 = DIRECTION ( 'NONE',  ( -3.491481338843133355E-15, 1.224646799147352961E-16, -1.000000000000000000 ) ) ;
#205 = AXIS2_PLACEMENT_3D ( 'NONE', #148, #244, #110 ) ;
#206 = CARTESIAN_POINT ( 'NONE',  ( 6.982962677686265724E-16, -2.449293598294705305E-17, 0.1999999999999999556 ) ) ;
#207 = ADVANCED_FACE ( 'NONE', ( #87, #289 ), #108, .T. ) ;
#208 = VERTEX_POINT ( 'NONE', #230 ) ;
#209 = AXIS2_PLACEMENT_3D ( 'NONE', #107, #204, #181 ) ;
#210 = FACE_OUTER_BOUND ( 'NONE', #238, .T. ) ;
#211 = EDGE_CURVE ( 'NONE', #92, #92, #240, .T. ) ;
#212 = DIRECTION ( 'NONE',  ( 3.491481338843133355E-15, -1.224646799147352961E-16, 1.000000000000000000 ) ) ;
#213 = CARTESIAN_POINT ( 'NONE',  ( 0.0000000000000000000, 0.3730299461620759094, 0.0000000000000000000 ) ) ;
#214 = CALENDAR_DATE ( 2021, 29, 11 ) ;
#215 = ADVANCED_FACE ( 'NONE', ( #132, #106 ), #114, .F. ) ;
#216 = EDGE_LOOP ( 'NONE', ( #167 ) ) ;
#217 = AXIS2_PLACEMENT_3D ( 'NONE', #252, #17, #113 ) ;
#218 = PRODUCT ( '200037', '200037', '', ( #162 ) ) ;
#219 = APPROVAL_STATUS ( 'not_yet_approved' ) ;
#220 = DIRECTION ( 'NONE',  ( -3.491481338843133355E-15, 1.224646799147352961E-16, -1.000000000000000000 ) ) ;
#221 = APPROVAL ( #77, 'UNSPECIFIED' ) ;
#222 = ORIENTED_EDGE ( 'NONE', *, *, #260, .F. ) ;
#223 = APPROVAL_PERSON_ORGANIZATION ( #169, #221, #237 ) ;
#224 = CARTESIAN_POINT ( 'NONE',  ( 1.745740669421566678E-14, 3.663163269151575767E-33, 5.000000000000000000 ) ) ;
#225 = FACE_OUTER_BOUND ( 'NONE', #118, .T. ) ;
#226 = ADVANCED_FACE ( 'NONE', ( #60, #177 ), #201, .T. ) ;
#227 = DIRECTION ( 'NONE',  ( -3.491481338843133355E-15, 1.224646799147352961E-16, -1.000000000000000000 ) ) ;
#228 = CARTESIAN_POINT ( 'NONE',  ( 0.0000000000000000000, 0.0000000000000000000, 0.0000000000000000000 ) ) ;
#229 = CARTESIAN_POINT ( 'NONE',  ( 1.745740669421566678E-14, -6.123233995736765296E-16, 5.000000000000000000 ) ) ;
#230 = CARTESIAN_POINT ( 'NONE',  ( 3.612739213212769111E-14, 0.4653844939755788501, 10.34729635533384595 ) ) ;
#231 = ADVANCED_FACE ( 'NONE', ( #245, #36 ), #127, .T. ) ;
#232 = SECURITY_CLASSIFICATION ( '', '', #163 ) ;
#233 = PERSON_AND_ORGANIZATION ( #176, #45 ) ;
#234 = EDGE_CURVE ( 'NONE', #160, #160, #288, .T. ) ;
#235 = PERSON_AND_ORGANIZATION_ROLE ( 'creator' ) ;
#236 = ORIENTED_EDGE ( 'NONE', *, *, #109, .T. ) ;
#237 = APPROVAL_ROLE ( '' ) ;
#238 = EDGE_LOOP ( 'NONE', ( #32 ) ) ;
#239 = ADVANCED_FACE ( 'NONE', ( #296, #184 ), #278, .T. ) ;
#240 = CIRCLE ( 'NONE', #11, 0.4884999999999999898 ) ;
#241 = ORIENTED_EDGE ( 'NONE', *, *, #234, .F. ) ;
#242 = DIRECTION ( 'NONE',  ( -3.942538268960569917E-31, -1.000000000000000000, -1.109725867436546438E-16 ) ) ;
#243 = CC_DESIGN_PERSON_AND_ORGANIZATION_ASSIGNMENT ( #1, #75, ( #232 ) ) ;
#244 = DIRECTION ( 'NONE',  ( -3.491481338843133355E-15, 1.224646799147352961E-16, -1.000000000000000000 ) ) ;
#245 = FACE_OUTER_BOUND ( 'NONE', #171, .T. ) ;
#246 = CARTESIAN_POINT ( 'NONE',  ( 6.982962677686265724E-16, -2.449293598294705305E-17, 0.1999999999999999556 ) ) ;
#247 = DIRECTION ( 'NONE',  ( -3.491481338843133355E-15, 1.224646799147352961E-16, -1.000000000000000000 ) ) ;
#248 = VERTEX_POINT ( 'NONE', #64 ) ;
#249 = DESIGN_CONTEXT ( 'detailed design', #22, 'design' ) ;
#250 = DIRECTION ( 'NONE',  ( -3.491481338843133355E-15, 1.224646799147352961E-16, -1.000000000000000000 ) ) ;
#251 = ADVANCED_BREP_SHAPE_REPRESENTATION ( '200037', ( #30, #129, #217 ), #202 ) ;
#252 = CARTESIAN_POINT ( 'NONE',  ( 0.0000000000000000000, 0.0000000000000000000, 0.0000000000000000000 ) ) ;
#253 = AXIS2_PLACEMENT_3D ( 'NONE', #81, #268, #295 ) ;
#254 = CARTESIAN_POINT ( 'NONE',  ( 6.982962677686267697E-16, 0.4884999999999993792, 0.2000000000000000111 ) ) ;
#255 = DIRECTION ( 'NONE',  ( -3.491481338843133355E-15, 1.224646799147352961E-16, -1.000000000000000000 ) ) ;
#256 = CIRCLE ( 'NONE', #2, 0.4349999999999999978 ) ;
#257 = PERSON_AND_ORGANIZATION ( #176, #45 ) ;
#258 = EDGE_LOOP ( 'NONE', ( #193 ) ) ;
#259 = AXIS2_PLACEMENT_3D ( 'NONE', #4, #195, #122 ) ;
#260 = EDGE_CURVE ( 'NONE', #301, #301, #256, .T. ) ;
#261 = DATE_AND_TIME ( #141, #155 ) ;
#262 = EDGE_LOOP ( 'NONE', ( #5 ) ) ;
#263 = DATE_AND_TIME ( #115, #38 ) ;
#264 = EDGE_LOOP ( 'NONE', ( #222 ) ) ;
#265 = APPROVAL_DATE_TIME ( #192, #221 ) ;
#266 = DIRECTION ( 'NONE',  ( -4.275831445896957731E-31, -1.000000000000000000, -1.224646799147352961E-16 ) ) ;
#267 = ADVANCED_FACE ( 'NONE', ( #95 ), #19, .T. ) ;
#268 = DIRECTION ( 'NONE',  ( 3.491481338843133355E-15, -1.224646799147352961E-16, 1.000000000000000000 ) ) ;
#269 = DIRECTION ( 'NONE',  ( 4.275831445896957731E-31, 1.000000000000000000, 1.224646799147352961E-16 ) ) ;
#270 = DIRECTION ( 'NONE',  ( -3.491481338843133355E-15, 1.224646799147352961E-16, -1.000000000000000000 ) ) ;
#271 = DIRECTION ( 'NONE',  ( 3.491481338843133355E-15, -1.224646799147352961E-16, 1.000000000000000000 ) ) ;
#272 = CC_DESIGN_APPROVAL ( #74, ( #232 ) ) ;
#273 = CARTESIAN_POINT ( 'NONE',  ( 1.326762908760390423E-13, -4.653657836759941152E-15, 38.00000000000000000 ) ) ;
#274 =( LENGTH_UNIT ( ) NAMED_UNIT ( * ) SI_UNIT ( .MILLI., .METRE. ) );
#275 = EDGE_CURVE ( 'NONE', #186, #186, #276, .T. ) ;
#276 = CIRCLE ( 'NONE', #280, 1.200000000000003286 ) ;
#277 = AXIS2_PLACEMENT_3D ( 'NONE', #246, #88, #242 ) ;
#278 = CYLINDRICAL_SURFACE ( 'NONE', #149, 0.4349999999999997202 ) ;
#279 = COORDINATED_UNIVERSAL_TIME_OFFSET ( 1, 0, .AHEAD. ) ;
#280 = AXIS2_PLACEMENT_3D ( 'NONE', #273, #250, #133 ) ;
#281 = DATE_TIME_ROLE ( 'classification_date' ) ;
#282 = AXIS2_PLACEMENT_3D ( 'NONE', #229, #270, #290 ) ;
#283 = PERSON_AND_ORGANIZATION ( #176, #45 ) ;
#284 = EDGE_LOOP ( 'NONE', ( #76 ) ) ;
#285 = COORDINATED_UNIVERSAL_TIME_OFFSET ( 1, 0, .AHEAD. ) ;
#286 = EDGE_LOOP ( 'NONE', ( #78 ) ) ;
#287 = FACE_BOUND ( 'NONE', #25, .T. ) ;
#288 = CIRCLE ( 'NONE', #183, 0.4884999999999993792 ) ;
#289 = FACE_OUTER_BOUND ( 'NONE', #284, .T. ) ;
#290 = DIRECTION ( 'NONE',  ( 0.0000000000000000000, 1.000000000000000000, 0.0000000000000000000 ) ) ;
#291 = CARTESIAN_POINT ( 'NONE',  ( 3.491481338843133355E-14, -1.301042606982605321E-15, 10.00000000000000000 ) ) ;
#292 = AXIS2_PLACEMENT_3D ( 'NONE', #291, #199, #180 ) ;
#293 = AXIS2_PLACEMENT_3D ( 'NONE', #182, #84, #104 ) ;
#294 = AXIS2_PLACEMENT_3D ( 'NONE', #124, #271, #59 ) ;
#295 = DIRECTION ( 'NONE',  ( 0.0000000000000000000, -1.000000000000000000, 0.0000000000000000000 ) ) ;
#296 = FACE_OUTER_BOUND ( 'NONE', #99, .T. ) ;
#297 = CC_DESIGN_APPROVAL ( #18, ( #79 ) ) ;
#298 = VERTEX_POINT ( 'NONE', #41 ) ;
#299 = ADVANCED_FACE ( 'NONE', ( #210, #42 ), #16, .T. ) ;
#300 = CARTESIAN_POINT ( 'NONE',  ( 1.778094382859736416E-14, -6.236715546280332998E-16, 5.092664718204937380 ) ) ;
#301 = VERTEX_POINT ( 'NONE', #44 ) ;
#302 = APPLICATION_PROTOCOL_DEFINITION ( 'international standard', 'config_control_design', 1994, #89 ) ;
#303 = APPROVAL_DATE_TIME ( #119, #74 ) ;
ENDSEC;
END-ISO-10303-21;
