ISO-10303-21;
HEADER;
FILE_DESCRIPTION (( 'STEP AP203' ),
    '1' );
FILE_NAME ('200036.step',
    '2021-11-29T14:49:24',
    ( '' ),
    ( '' ),
    'SwSTEP 2.0',
    'SolidWorks 2019',
    '' );
FILE_SCHEMA (( 'CONFIG_CONTROL_DESIGN' ));
ENDSEC;

DATA;
#1 = EDGE_LOOP ( 'NONE', ( #92 ) ) ;
#2 = CARTESIAN_POINT ( 'NONE',  ( 3.612739213212769742E-14, 0.4603844939755788457, 10.34729635533384773 ) ) ;
#3 = ADVANCED_FACE ( 'NONE', ( #17, #134 ), #88, .T. ) ;
#4 = VERTEX_POINT ( 'NONE', #2 ) ;
#5 = ORIENTED_EDGE ( 'NONE', *, *, #49, .T. ) ;
#6 = ADVANCED_BREP_SHAPE_REPRESENTATION ( '200036', ( #148, #250, #197 ), #151 ) ;
#7 = CIRCLE ( 'NONE', #176, 0.3680299461620759049 ) ;
#8 = CARTESIAN_POINT ( 'NONE',  ( 0.0000000000000000000, 0.0000000000000000000, 0.0000000000000000000 ) ) ;
#9 = PRODUCT_DEFINITION ( 'UNKNOWN', '', #182, #125 ) ;
#10 = DIRECTION ( 'NONE',  ( 0.0000000000000000000, 1.000000000000000000, 0.0000000000000000000 ) ) ;
#11 = APPROVAL_STATUS ( 'not_yet_approved' ) ;
#12 = AXIS2_PLACEMENT_3D ( 'NONE', #141, #24, #265 ) ;
#13 = CYLINDRICAL_SURFACE ( 'NONE', #163, 0.4299999999999998268 ) ;
#14 = PERSON_AND_ORGANIZATION_ROLE ( 'creator' ) ;
#15 = EDGE_LOOP ( 'NONE', ( #239 ) ) ;
#16 = DIRECTION ( 'NONE',  ( -3.491481338843133355E-15, 1.224646799147352961E-16, -1.000000000000000000 ) ) ;
#17 = FACE_OUTER_BOUND ( 'NONE', #77, .T. ) ;
#18 = EDGE_CURVE ( 'NONE', #215, #215, #95, .T. ) ;
#19 = AXIS2_PLACEMENT_3D ( 'NONE', #99, #70, #166 ) ;
#20 = ADVANCED_FACE ( 'NONE', ( #251 ), #157, .F. ) ;
#21 = EDGE_LOOP ( 'NONE', ( #69 ) ) ;
#22 = ORGANIZATION ( 'UNSPECIFIED', 'UNSPECIFIED', '' ) ;
#23 = FACE_BOUND ( 'NONE', #68, .T. ) ;
#24 = DIRECTION ( 'NONE',  ( -3.491481338843133355E-15, 1.224646799147352961E-16, -1.000000000000000000 ) ) ;
#25 = EDGE_LOOP ( 'NONE', ( #118 ) ) ;
#26 =( LENGTH_UNIT ( ) NAMED_UNIT ( * ) SI_UNIT ( .MILLI., .METRE. ) );
#27 = LOCAL_TIME ( 15, 49, 24.00000000000000000, #171 ) ;
#28 = DIRECTION ( 'NONE',  ( 3.491481338843133355E-15, -1.224646799147352961E-16, 1.000000000000000000 ) ) ;
#29 = CONICAL_SURFACE ( 'NONE', #216, 0.4834999999999993747, 0.5235987755982925984 ) ;
#30 = SHAPE_DEFINITION_REPRESENTATION ( #65, #6 ) ;
#31 = DIRECTION ( 'NONE',  ( -4.275831445896957731E-31, -1.000000000000000000, -1.224646799147352961E-16 ) ) ;
#32 = COORDINATED_UNIVERSAL_TIME_OFFSET ( 1, 0, .AHEAD. ) ;
#33 = ORIENTED_EDGE ( 'NONE', *, *, #144, .T. ) ;
#34 = DIRECTION ( 'NONE',  ( 4.275831445896957731E-31, 1.000000000000000000, 1.224646799147352961E-16 ) ) ;
#35 = DIRECTION ( 'NONE',  ( 3.491481338843133355E-15, -1.224646799147352961E-16, 1.000000000000000000 ) ) ;
#36 = DIRECTION ( 'NONE',  ( 0.0000000000000000000, 1.000000000000000000, 0.0000000000000000000 ) ) ;
#37 = ORIENTED_EDGE ( 'NONE', *, *, #110, .T. ) ;
#38 = CC_DESIGN_PERSON_AND_ORGANIZATION_ASSIGNMENT ( #200, #174, ( #182 ) ) ;
#39 = FACE_OUTER_BOUND ( 'NONE', #219, .T. ) ;
#40 = DIRECTION ( 'NONE',  ( 3.491481338843133355E-15, -1.224646799147352961E-16, 1.000000000000000000 ) ) ;
#41 = DIRECTION ( 'NONE',  ( 0.0000000000000000000, 1.000000000000000000, 0.0000000000000000000 ) ) ;
#42 = CARTESIAN_POINT ( 'NONE',  ( 6.982962677686267697E-16, 0.4834999999999993747, 0.2000000000000000111 ) ) ;
#43 = CARTESIAN_POINT ( 'NONE',  ( 1.745740669421566678E-14, 0.4834999999999993747, 5.000000000000000000 ) ) ;
#44 = AXIS2_PLACEMENT_3D ( 'NONE', #269, #199, #287 ) ;
#45 = ORIENTED_EDGE ( 'NONE', *, *, #127, .T. ) ;
#46 = DIRECTION ( 'NONE',  ( -3.491481338843133355E-15, 1.224646799147352961E-16, -1.000000000000000000 ) ) ;
#47 = PERSON ( 'UNSPECIFIED', 'UNSPECIFIED', 'UNSPECIFIED', ('UNSPECIFIED'), ('UNSPECIFIED'), ('UNSPECIFIED') ) ;
#48 = CARTESIAN_POINT ( 'NONE',  ( 1.326762908760390423E-13, 1.199999999999998845, 38.00000000000000000 ) ) ;
#49 = EDGE_CURVE ( 'NONE', #4, #4, #220, .T. ) ;
#50 = CONICAL_SURFACE ( 'NONE', #19, 0.4299999999999993827, 0.5235987755982918213 ) ;
#51 = ORIENTED_EDGE ( 'NONE', *, *, #135, .T. ) ;
#52 = FACE_OUTER_BOUND ( 'NONE', #25, .T. ) ;
#53 = DIRECTION ( 'NONE',  ( -3.491481338843133355E-15, 1.224646799147352961E-16, -1.000000000000000000 ) ) ;
#54 = APPROVAL_DATE_TIME ( #266, #214 ) ;
#55 = SECURITY_CLASSIFICATION ( '', '', #60 ) ;
#56 = ADVANCED_FACE ( 'NONE', ( #227 ), #230, .T. ) ;
#57 = DIRECTION ( 'NONE',  ( 4.275831445896957731E-31, 1.000000000000000000, 1.224646799147352961E-16 ) ) ;
#58 = DIRECTION ( 'NONE',  ( 3.491481338843133355E-15, -1.224646799147352961E-16, 1.000000000000000000 ) ) ;
#59 = ADVANCED_FACE ( 'NONE', ( #248, #105 ), #295, .T. ) ;
#60 = SECURITY_CLASSIFICATION_LEVEL ( 'unclassified' ) ;
#61 = AXIS2_PLACEMENT_3D ( 'NONE', #280, #35, #131 ) ;
#62 = DIRECTION ( 'NONE',  ( 0.0000000000000000000, 1.000000000000000000, 0.0000000000000000000 ) ) ;
#63 = CARTESIAN_POINT ( 'NONE',  ( 1.745740669421566678E-14, 3.625669274585030421E-33, 5.000000000000000000 ) ) ;
#64 = PERSON_AND_ORGANIZATION_ROLE ( 'design_owner' ) ;
#65 = PRODUCT_DEFINITION_SHAPE ( 'NONE', 'NONE',  #9 ) ;
#66 = ORIENTED_EDGE ( 'NONE', *, *, #49, .F. ) ;
#67 = CIRCLE ( 'NONE', #109, 0.4300000000000002154 ) ;
#68 = EDGE_LOOP ( 'NONE', ( #66 ) ) ;
#69 = ORIENTED_EDGE ( 'NONE', *, *, #144, .F. ) ;
#70 = DIRECTION ( 'NONE',  ( -3.491481338843133355E-15, 1.224646799147352961E-16, -1.000000000000000000 ) ) ;
#71 = CC_DESIGN_DATE_AND_TIME_ASSIGNMENT ( #83, #153, ( #9 ) ) ;
#72 = EDGE_LOOP ( 'NONE', ( #112 ) ) ;
#73 = CARTESIAN_POINT ( 'NONE',  ( 3.491481338843133355E-14, -1.224646799147353059E-15, 10.00000000000000000 ) ) ;
#74 = AXIS2_PLACEMENT_3D ( 'NONE', #228, #16, #297 ) ;
#75 = FACE_OUTER_BOUND ( 'NONE', #145, .T. ) ;
#76 = EDGE_CURVE ( 'NONE', #162, #162, #7, .T. ) ;
#77 = EDGE_LOOP ( 'NONE', ( #98 ) ) ;
#78 = CIRCLE ( 'NONE', #263, 0.4299999999999993827 ) ;
#79 = DIRECTION ( 'NONE',  ( 0.0000000000000000000, 0.0000000000000000000, 1.000000000000000000 ) ) ;
#80 = AXIS2_PLACEMENT_3D ( 'NONE', #155, #108, #36 ) ;
#81 = DATE_AND_TIME ( #223, #232 ) ;
#82 = CONICAL_SURFACE ( 'NONE', #169, 1.499999999999997335, 0.1745329251994262032 ) ;
#83 = DATE_AND_TIME ( #229, #279 ) ;
#84 = DIRECTION ( 'NONE',  ( -3.491481338843133355E-15, 1.224646799147352961E-16, -1.000000000000000000 ) ) ;
#85 = CIRCLE ( 'NONE', #119, 0.4834999999999999853 ) ;
#86 = CARTESIAN_POINT ( 'NONE',  ( 1.745740669421566678E-14, -6.123233995736765296E-16, 5.000000000000000000 ) ) ;
#87 = ORIENTED_EDGE ( 'NONE', *, *, #113, .T. ) ;
#88 = CYLINDRICAL_SURFACE ( 'NONE', #267, 1.500000000000000444 ) ;
#89 = FACE_OUTER_BOUND ( 'NONE', #192, .T. ) ;
#90 = ORIENTED_EDGE ( 'NONE', *, *, #127, .F. ) ;
#91 = CARTESIAN_POINT ( 'NONE',  ( 3.491481338843133355E-14, -1.301042606982605321E-15, 10.00000000000000000 ) ) ;
#92 = ORIENTED_EDGE ( 'NONE', *, *, #113, .F. ) ;
#93 = APPLICATION_CONTEXT ( 'configuration controlled 3d designs of mechanical parts and assemblies' ) ;
#94 = CARTESIAN_POINT ( 'NONE',  ( 1.316288464743861212E-13, 1.499999999999998668, 37.69999999999999574 ) ) ;
#95 = CIRCLE ( 'NONE', #80, 1.499999999999997335 ) ;
#96 = EDGE_LOOP ( 'NONE', ( #37 ) ) ;
#97 = VERTEX_POINT ( 'NONE', #191 ) ;
#98 = ORIENTED_EDGE ( 'NONE', *, *, #18, .F. ) ;
#99 = CARTESIAN_POINT ( 'NONE',  ( 1.778094382859736416E-14, -6.236715546280332998E-16, 5.092664718204937380 ) ) ;
#100 = AXIS2_PLACEMENT_3D ( 'NONE', #207, #301, #130 ) ;
#101 = ADVANCED_FACE ( 'NONE', ( #283 ), #133, .F. ) ;
#102 = PERSON_AND_ORGANIZATION ( #47, #22 ) ;
#103 = CALENDAR_DATE ( 2021, 29, 11 ) ;
#104 = CARTESIAN_POINT ( 'NONE',  ( 0.0000000000000000000, 0.0000000000000000000, 0.0000000000000000000 ) ) ;
#105 = FACE_OUTER_BOUND ( 'NONE', #187, .T. ) ;
#106 = COORDINATED_UNIVERSAL_TIME_OFFSET ( 1, 0, .AHEAD. ) ;
#107 = DIRECTION ( 'NONE',  ( 4.275831445896957731E-31, 1.000000000000000000, 1.224646799147353207E-16 ) ) ;
#108 = DIRECTION ( 'NONE',  ( -3.491481338843133355E-15, 1.224646799147352961E-16, -1.000000000000000000 ) ) ;
#109 = AXIS2_PLACEMENT_3D ( 'NONE', #73, #117, #257 ) ;
#110 = EDGE_CURVE ( 'NONE', #236, #236, #210, .T. ) ;
#111 = DIRECTION ( 'NONE',  ( -4.275831445896957731E-31, -1.000000000000000000, -1.224646799147352961E-16 ) ) ;
#112 = ORIENTED_EDGE ( 'NONE', *, *, #76, .F. ) ;
#113 = EDGE_CURVE ( 'NONE', #97, #97, #78, .T. ) ;
#114 = AXIS2_PLACEMENT_3D ( 'NONE', #86, #300, #178 ) ;
#115 = VERTEX_POINT ( 'NONE', #42 ) ;
#116 = ORIENTED_EDGE ( 'NONE', *, *, #226, .F. ) ;
#117 = DIRECTION ( 'NONE',  ( -3.491481338843133355E-15, 1.224646799147352961E-16, -1.000000000000000000 ) ) ;
#118 = ORIENTED_EDGE ( 'NONE', *, *, #135, .F. ) ;
#119 = AXIS2_PLACEMENT_3D ( 'NONE', #175, #204, #62 ) ;
#120 = CONICAL_SURFACE ( 'NONE', #12, 1.200000000000003286, 0.7853981633974453924 ) ;
#121 = EDGE_LOOP ( 'NONE', ( #87 ) ) ;
#122 = DIRECTION ( 'NONE',  ( -3.491481338843133355E-15, 1.224646799147352961E-16, -1.000000000000000000 ) ) ;
#123 = ADVANCED_FACE ( 'NONE', ( #39 ), #161, .F. ) ;
#124 = APPROVAL_ROLE ( '' ) ;
#125 = DESIGN_CONTEXT ( 'detailed design', #281, 'design' ) ;
#126 = DIRECTION ( 'NONE',  ( 4.275831445896957731E-31, 1.000000000000000000, 1.224646799147352961E-16 ) ) ;
#127 = EDGE_CURVE ( 'NONE', #115, #115, #246, .T. ) ;
#128 = APPROVAL_ROLE ( '' ) ;
#129 = LOCAL_TIME ( 15, 49, 24.00000000000000000, #32 ) ;
#130 = DIRECTION ( 'NONE',  ( 0.0000000000000000000, 1.000000000000000000, 0.0000000000000000000 ) ) ;
#131 = DIRECTION ( 'NONE',  ( -4.275831445896957731E-31, -1.000000000000000000, -1.224646799147352961E-16 ) ) ;
#132 = COORDINATED_UNIVERSAL_TIME_OFFSET ( 1, 0, .AHEAD. ) ;
#133 = PLANE ( 'NONE',  #44 ) ;
#134 = FACE_OUTER_BOUND ( 'NONE', #96, .T. ) ;
#135 = EDGE_CURVE ( 'NONE', #138, #138, #85, .T. ) ;
#136 = EDGE_LOOP ( 'NONE', ( #159 ) ) ;
#137 = CARTESIAN_POINT ( 'NONE',  ( 1.778094382859736416E-14, -6.236715546280332998E-16, 5.092664718204937380 ) ) ;
#138 = VERTEX_POINT ( 'NONE', #43 ) ;
#139 = AXIS2_PLACEMENT_3D ( 'NONE', #179, #84, #57 ) ;
#140 = DIRECTION ( 'NONE',  ( -3.491481338843133355E-15, 1.224646799147352961E-16, -1.000000000000000000 ) ) ;
#141 = CARTESIAN_POINT ( 'NONE',  ( 1.326762908760390423E-13, -4.653657836759941152E-15, 38.00000000000000000 ) ) ;
#142 = VERTEX_POINT ( 'NONE', #238 ) ;
#143 = AXIS2_PLACEMENT_3D ( 'NONE', #167, #208, #41 ) ;
#144 = EDGE_CURVE ( 'NONE', #190, #190, #225, .T. ) ;
#145 = EDGE_LOOP ( 'NONE', ( #5 ) ) ;
#146 = FACE_BOUND ( 'NONE', #15, .T. ) ;
#147 = PERSON_AND_ORGANIZATION ( #47, #22 ) ;
#148 = MANIFOLD_SOLID_BREP ( 'Corps-Déplacer/Copier1[1]', #203 ) ;
#149 = PERSON_AND_ORGANIZATION ( #47, #22 ) ;
#150 = DIRECTION ( 'NONE',  ( -3.491481338843133355E-15, 1.224646799147352961E-16, -1.000000000000000000 ) ) ;
#151 =( GEOMETRIC_REPRESENTATION_CONTEXT ( 3 ) GLOBAL_UNCERTAINTY_ASSIGNED_CONTEXT ( ( #195 ) ) GLOBAL_UNIT_ASSIGNED_CONTEXT ( ( #26, #288, #213 ) ) REPRESENTATION_CONTEXT ( 'NONE', 'WORKASPACE' ) );
#152 = CALENDAR_DATE ( 2021, 29, 11 ) ;
#153 = DATE_TIME_ROLE ( 'creation_date' ) ;
#154 = PRODUCT_RELATED_PRODUCT_CATEGORY ( 'detail', '', ( #273 ) ) ;
#155 = CARTESIAN_POINT ( 'NONE',  ( 5.671300032590595696E-14, -1.989224274135063348E-15, 16.24324887404302231 ) ) ;
#156 = APPROVAL_PERSON_ORGANIZATION ( #149, #170, #124 ) ;
#157 = PLANE ( 'NONE',  #253 ) ;
#158 = APPROVAL ( #272, 'UNSPECIFIED' ) ;
#159 = ORIENTED_EDGE ( 'NONE', *, *, #110, .F. ) ;
#160 = DIRECTION ( 'NONE',  ( -3.983309088701630102E-31, -1.000000000000000000, -1.121201832973635708E-16 ) ) ;
#161 = PLANE ( 'NONE',  #61 ) ;
#162 = VERTEX_POINT ( 'NONE', #164 ) ;
#163 = AXIS2_PLACEMENT_3D ( 'NONE', #104, #150, #34 ) ;
#164 = CARTESIAN_POINT ( 'NONE',  ( 2.138211768073756517E-47, 0.3680299461620759049, 0.0000000000000000000 ) ) ;
#165 = ADVANCED_FACE ( 'NONE', ( #278, #224 ), #13, .T. ) ;
#166 = DIRECTION ( 'NONE',  ( 0.0000000000000000000, 1.000000000000000000, 0.0000000000000000000 ) ) ;
#167 = CARTESIAN_POINT ( 'NONE',  ( 1.316288464743861212E-13, -4.616918432785520292E-15, 37.69999999999999574 ) ) ;
#168 = EDGE_LOOP ( 'NONE', ( #185 ) ) ;
#169 = AXIS2_PLACEMENT_3D ( 'NONE', #286, #28, #282 ) ;
#170 = APPROVAL ( #11, 'UNSPECIFIED' ) ;
#171 = COORDINATED_UNIVERSAL_TIME_OFFSET ( 1, 0, .AHEAD. ) ;
#172 = CC_DESIGN_DATE_AND_TIME_ASSIGNMENT ( #247, #173, ( #55 ) ) ;
#173 = DATE_TIME_ROLE ( 'classification_date' ) ;
#174 = PERSON_AND_ORGANIZATION_ROLE ( 'design_supplier' ) ;
#175 = CARTESIAN_POINT ( 'NONE',  ( 1.745740669421566678E-14, -6.123233995736765296E-16, 5.000000000000000000 ) ) ;
#176 = AXIS2_PLACEMENT_3D ( 'NONE', #177, #53, #126 ) ;
#177 = CARTESIAN_POINT ( 'NONE',  ( -1.573634016831568305E-31, 5.519565120690899229E-33, -4.507066955577588986E-17 ) ) ;
#178 = DIRECTION ( 'NONE',  ( 0.0000000000000000000, 1.000000000000000000, 0.0000000000000000000 ) ) ;
#179 = CARTESIAN_POINT ( 'NONE',  ( 0.0000000000000000000, 0.0000000000000000000, 0.0000000000000000000 ) ) ;
#180 = DIRECTION ( 'NONE',  ( -3.491481338843133355E-15, 1.224646799147352961E-16, -1.000000000000000000 ) ) ;
#181 = ADVANCED_FACE ( 'NONE', ( #52, #289 ), #50, .T. ) ;
#182 = PRODUCT_DEFINITION_FORMATION_WITH_SPECIFIED_SOURCE ( 'ANY', '', #273, .NOT_KNOWN. ) ;
#183 = EDGE_LOOP ( 'NONE', ( #116 ) ) ;
#184 = DIRECTION ( 'NONE',  ( 3.491481338843133355E-15, -1.224646799147352961E-16, 1.000000000000000000 ) ) ;
#185 = ORIENTED_EDGE ( 'NONE', *, *, #76, .T. ) ;
#186 = CARTESIAN_POINT ( 'NONE',  ( 1.745740669421566678E-14, 0.4834999999999993747, 5.000000000000000000 ) ) ;
#187 = EDGE_LOOP ( 'NONE', ( #33 ) ) ;
#188 = APPLICATION_PROTOCOL_DEFINITION ( 'international standard', 'config_control_design', 1994, #93 ) ;
#189 = CC_DESIGN_APPROVAL ( #214, ( #182 ) ) ;
#190 = VERTEX_POINT ( 'NONE', #186 ) ;
#191 = CARTESIAN_POINT ( 'NONE',  ( 1.778094382859736416E-14, 0.4299999999999987166, 5.092664718204937380 ) ) ;
#192 = EDGE_LOOP ( 'NONE', ( #45 ) ) ;
#193 = LOCAL_TIME ( 15, 49, 24.00000000000000000, #106 ) ;
#194 = APPROVAL_ROLE ( '' ) ;
#195 = UNCERTAINTY_MEASURE_WITH_UNIT (LENGTH_MEASURE( 1.000000000000000082E-05 ), #26, 'distance_accuracy_value', 'NONE');
#196 = PERSON_AND_ORGANIZATION_ROLE ( 'classification_officer' ) ;
#197 = AXIS2_PLACEMENT_3D ( 'NONE', #8, #79, #296 ) ;
#198 = APPROVAL_DATE_TIME ( #222, #170 ) ;
#199 = DIRECTION ( 'NONE',  ( -3.491481338843133355E-15, 1.224646799147352961E-16, -1.000000000000000000 ) ) ;
#200 = PERSON_AND_ORGANIZATION ( #47, #22 ) ;
#201 = CC_DESIGN_PERSON_AND_ORGANIZATION_ASSIGNMENT ( #270, #196, ( #55 ) ) ;
#202 = CARTESIAN_POINT ( 'NONE',  ( 0.0000000000000000000, 0.0000000000000000000, 0.0000000000000000000 ) ) ;
#203 = CLOSED_SHELL ( 'NONE', ( #123, #181, #165, #260, #252, #3, #242, #101 ) ) ;
#204 = DIRECTION ( 'NONE',  ( -3.491481338843133355E-15, 1.224646799147352961E-16, -1.000000000000000000 ) ) ;
#205 = AXIS2_PLACEMENT_3D ( 'NONE', #259, #46, #233 ) ;
#206 = ADVANCED_FACE ( 'NONE', ( #303, #89 ), #29, .T. ) ;
#207 = CARTESIAN_POINT ( 'NONE',  ( 3.612739213212769742E-14, -1.267178336138866772E-15, 10.34729635533384773 ) ) ;
#208 = DIRECTION ( 'NONE',  ( -3.491481338843133355E-15, 1.224646799147352961E-16, -1.000000000000000000 ) ) ;
#209 = FACE_OUTER_BOUND ( 'NONE', #262, .T. ) ;
#210 = CIRCLE ( 'NONE', #143, 1.500000000000003331 ) ;
#211 = ORIENTED_EDGE ( 'NONE', *, *, #18, .T. ) ;
#212 = FACE_OUTER_BOUND ( 'NONE', #136, .T. ) ;
#213 =( NAMED_UNIT ( * ) SI_UNIT ( $, .STERADIAN. ) SOLID_ANGLE_UNIT ( ) );
#214 = APPROVAL ( #292, 'UNSPECIFIED' ) ;
#215 = VERTEX_POINT ( 'NONE', #217 ) ;
#216 = AXIS2_PLACEMENT_3D ( 'NONE', #241, #184, #160 ) ;
#217 = CARTESIAN_POINT ( 'NONE',  ( 5.671300032590595696E-14, 1.499999999999995559, 16.24324887404302231 ) ) ;
#218 = CC_DESIGN_PERSON_AND_ORGANIZATION_ASSIGNMENT ( #147, #14, ( #182 ) ) ;
#219 = EDGE_LOOP ( 'NONE', ( #51 ) ) ;
#220 = CIRCLE ( 'NONE', #100, 0.4603844939755801224 ) ;
#221 = PERSON_AND_ORGANIZATION ( #47, #22 ) ;
#222 = DATE_AND_TIME ( #152, #193 ) ;
#223 = CALENDAR_DATE ( 2021, 29, 11 ) ;
#224 = FACE_OUTER_BOUND ( 'NONE', #235, .T. ) ;
#225 = CIRCLE ( 'NONE', #114, 0.4834999999999999853 ) ;
#226 = EDGE_CURVE ( 'NONE', #261, #261, #243, .T. ) ;
#227 = FACE_OUTER_BOUND ( 'NONE', #21, .T. ) ;
#228 = CARTESIAN_POINT ( 'NONE',  ( 6.982962677686265724E-16, -2.449293598294705305E-17, 0.1999999999999999556 ) ) ;
#229 = CALENDAR_DATE ( 2021, 29, 11 ) ;
#230 = PLANE ( 'NONE',  #258 ) ;
#231 = CLOSED_SHELL ( 'NONE', ( #20, #206, #59, #56 ) ) ;
#232 = LOCAL_TIME ( 15, 49, 24.00000000000000000, #132 ) ;
#233 = DIRECTION ( 'NONE',  ( 0.0000000000000000000, 1.000000000000000000, 0.0000000000000000000 ) ) ;
#234 = CC_DESIGN_APPROVAL ( #170, ( #9 ) ) ;
#235 = EDGE_LOOP ( 'NONE', ( #277 ) ) ;
#236 = VERTEX_POINT ( 'NONE', #94 ) ;
#237 = DIRECTION ( 'NONE',  ( 4.275831445896957731E-31, 1.000000000000000000, 1.224646799147352961E-16 ) ) ;
#238 = CARTESIAN_POINT ( 'NONE',  ( 3.491481338843133355E-14, 0.4299999999999989386, 10.00000000000000000 ) ) ;
#239 = ORIENTED_EDGE ( 'NONE', *, *, #226, .T. ) ;
#240 = CC_DESIGN_APPROVAL ( #158, ( #55 ) ) ;
#241 = CARTESIAN_POINT ( 'NONE',  ( 6.982962677686265724E-16, -2.449293598294705305E-17, 0.1999999999999999556 ) ) ;
#242 = ADVANCED_FACE ( 'NONE', ( #212, #146 ), #120, .T. ) ;
#243 = CIRCLE ( 'NONE', #205, 1.200000000000003286 ) ;
#244 = PERSON_AND_ORGANIZATION ( #47, #22 ) ;
#245 = APPLICATION_PROTOCOL_DEFINITION ( 'international standard', 'config_control_design', 1994, #281 ) ;
#246 = CIRCLE ( 'NONE', #74, 0.4834999999999993747 ) ;
#247 = DATE_AND_TIME ( #274, #129 ) ;
#248 = FACE_OUTER_BOUND ( 'NONE', #284, .T. ) ;
#249 = COORDINATED_UNIVERSAL_TIME_OFFSET ( 1, 0, .AHEAD. ) ;
#250 = MANIFOLD_SOLID_BREP ( 'Corps-Déplacer/Copier1[2]', #231 ) ;
#251 = FACE_OUTER_BOUND ( 'NONE', #168, .T. ) ;
#252 = ADVANCED_FACE ( 'NONE', ( #23, #285 ), #82, .T. ) ;
#253 = AXIS2_PLACEMENT_3D ( 'NONE', #255, #40, #111 ) ;
#254 = TOROIDAL_SURFACE ( 'NONE', #299, 2.430000000000000160, 2.000000000000000888 ) ;
#255 = CARTESIAN_POINT ( 'NONE',  ( -7.868170084157841527E-32, 2.759782560345449615E-33, -2.253533477788794493E-17 ) ) ;
#256 = EDGE_LOOP ( 'NONE', ( #211 ) ) ;
#257 = DIRECTION ( 'NONE',  ( 0.0000000000000000000, 1.000000000000000000, 0.0000000000000000000 ) ) ;
#258 = AXIS2_PLACEMENT_3D ( 'NONE', #63, #58, #31 ) ;
#259 = CARTESIAN_POINT ( 'NONE',  ( 1.326762908760390423E-13, -4.653657836759941152E-15, 38.00000000000000000 ) ) ;
#260 = ADVANCED_FACE ( 'NONE', ( #209, #75 ), #254, .F. ) ;
#261 = VERTEX_POINT ( 'NONE', #48 ) ;
#262 = EDGE_LOOP ( 'NONE', ( #290 ) ) ;
#263 = AXIS2_PLACEMENT_3D ( 'NONE', #137, #122, #10 ) ;
#264 = CC_DESIGN_PERSON_AND_ORGANIZATION_ASSIGNMENT ( #102, #64, ( #273 ) ) ;
#265 = DIRECTION ( 'NONE',  ( 0.0000000000000000000, 1.000000000000000000, 0.0000000000000000000 ) ) ;
#266 = DATE_AND_TIME ( #103, #27 ) ;
#267 = AXIS2_PLACEMENT_3D ( 'NONE', #202, #180, #107 ) ;
#268 = CC_DESIGN_SECURITY_CLASSIFICATION ( #55, ( #182 ) ) ;
#269 = CARTESIAN_POINT ( 'NONE',  ( 1.326762908760390423E-13, 8.998558695971099120E-33, 38.00000000000000000 ) ) ;
#270 = PERSON_AND_ORGANIZATION ( #47, #22 ) ;
#271 = CC_DESIGN_PERSON_AND_ORGANIZATION_ASSIGNMENT ( #276, #294, ( #9 ) ) ;
#272 = APPROVAL_STATUS ( 'not_yet_approved' ) ;
#273 = PRODUCT ( '200036', '200036', '', ( #291 ) ) ;
#274 = CALENDAR_DATE ( 2021, 29, 11 ) ;
#275 = APPROVAL_PERSON_ORGANIZATION ( #244, #158, #128 ) ;
#276 = PERSON_AND_ORGANIZATION ( #47, #22 ) ;
#277 = ORIENTED_EDGE ( 'NONE', *, *, #302, .T. ) ;
#278 = FACE_OUTER_BOUND ( 'NONE', #1, .T. ) ;
#279 = LOCAL_TIME ( 15, 49, 24.00000000000000000, #249 ) ;
#280 = CARTESIAN_POINT ( 'NONE',  ( 1.745740669421566678E-14, 3.625669274585030421E-33, 5.000000000000000000 ) ) ;
#281 = APPLICATION_CONTEXT ( 'configuration controlled 3d designs of mechanical parts and assemblies' ) ;
#282 = DIRECTION ( 'NONE',  ( 0.0000000000000000000, -1.000000000000000000, 0.0000000000000000000 ) ) ;
#283 = FACE_OUTER_BOUND ( 'NONE', #183, .T. ) ;
#284 = EDGE_LOOP ( 'NONE', ( #90 ) ) ;
#285 = FACE_OUTER_BOUND ( 'NONE', #256, .T. ) ;
#286 = CARTESIAN_POINT ( 'NONE',  ( 5.671300032590595696E-14, -1.989224274135063348E-15, 16.24324887404302231 ) ) ;
#287 = DIRECTION ( 'NONE',  ( 4.275831445896957731E-31, 1.000000000000000000, 1.224646799147352961E-16 ) ) ;
#288 =( NAMED_UNIT ( * ) PLANE_ANGLE_UNIT ( ) SI_UNIT ( $, .RADIAN. ) );
#289 = FACE_BOUND ( 'NONE', #121, .T. ) ;
#290 = ORIENTED_EDGE ( 'NONE', *, *, #302, .F. ) ;
#291 = MECHANICAL_CONTEXT ( 'NONE', #93, 'mechanical' ) ;
#292 = APPROVAL_STATUS ( 'not_yet_approved' ) ;
#293 = APPROVAL_PERSON_ORGANIZATION ( #221, #214, #194 ) ;
#294 = PERSON_AND_ORGANIZATION_ROLE ( 'creator' ) ;
#295 = CYLINDRICAL_SURFACE ( 'NONE', #139, 0.4834999999999996523 ) ;
#296 = DIRECTION ( 'NONE',  ( 1.000000000000000000, 0.0000000000000000000, 0.0000000000000000000 ) ) ;
#297 = DIRECTION ( 'NONE',  ( 3.983309088701630102E-31, 1.000000000000000000, 1.121201832973635708E-16 ) ) ;
#298 = APPROVAL_DATE_TIME ( #81, #158 ) ;
#299 = AXIS2_PLACEMENT_3D ( 'NONE', #91, #140, #237 ) ;
#300 = DIRECTION ( 'NONE',  ( -3.491481338843133355E-15, 1.224646799147352961E-16, -1.000000000000000000 ) ) ;
#301 = DIRECTION ( 'NONE',  ( -3.491481338843133355E-15, 1.224646799147352961E-16, -1.000000000000000000 ) ) ;
#302 = EDGE_CURVE ( 'NONE', #142, #142, #67, .T. ) ;
#303 = FACE_BOUND ( 'NONE', #72, .T. ) ;
ENDSEC;
END-ISO-10303-21;
