ISO-10303-21;
HEADER;
FILE_DESCRIPTION (( 'STEP AP203' ),
    '1' );
FILE_NAME ('200035.step',
    '2021-11-29T14:49:24',
    ( '' ),
    ( '' ),
    'SwSTEP 2.0',
    'SolidWorks 2019',
    '' );
FILE_SCHEMA (( 'CONFIG_CONTROL_DESIGN' ));
ENDSEC;

DATA;
#1 = FACE_OUTER_BOUND ( 'NONE', #207, .T. ) ;
#2 = FACE_OUTER_BOUND ( 'NONE', #296, .T. ) ;
#3 = FACE_OUTER_BOUND ( 'NONE', #118, .T. ) ;
#4 = DIRECTION ( 'NONE',  ( -3.491481338843133355E-15, 1.224646799147352961E-16, -1.000000000000000000 ) ) ;
#5 = CARTESIAN_POINT ( 'NONE',  ( 5.691101207231111931E-14, -1.996169591262521320E-15, 16.29996169223920433 ) ) ;
#6 = AXIS2_PLACEMENT_3D ( 'NONE', #166, #145, #284 ) ;
#7 = VERTEX_POINT ( 'NONE', #286 ) ;
#8 = DESIGN_CONTEXT ( 'detailed design', #111, 'design' ) ;
#9 = MECHANICAL_CONTEXT ( 'NONE', #83, 'mechanical' ) ;
#10 = VERTEX_POINT ( 'NONE', #147 ) ;
#11 = CALENDAR_DATE ( 2021, 29, 11 ) ;
#12 = APPROVAL_ROLE ( '' ) ;
#13 = EDGE_LOOP ( 'NONE', ( #193 ) ) ;
#14 = AXIS2_PLACEMENT_3D ( 'NONE', #68, #77, #288 ) ;
#15 = EDGE_CURVE ( 'NONE', #241, #241, #178, .T. ) ;
#16 = EDGE_LOOP ( 'NONE', ( #153 ) ) ;
#17 = ORIENTED_EDGE ( 'NONE', *, *, #15, .T. ) ;
#18 = DIRECTION ( 'NONE',  ( -3.491481338843133355E-15, 1.224646799147352961E-16, -1.000000000000000000 ) ) ;
#19 = AXIS2_PLACEMENT_3D ( 'NONE', #138, #278, #40 ) ;
#20 = DIRECTION ( 'NONE',  ( -3.491481338843133355E-15, 1.224646799147352961E-16, -1.000000000000000000 ) ) ;
#21 = CARTESIAN_POINT ( 'NONE',  ( 3.491481338843133355E-14, -1.301042606982605321E-15, 10.00000000000000000 ) ) ;
#22 = CARTESIAN_POINT ( 'NONE',  ( 0.0000000000000000000, 0.0000000000000000000, 0.0000000000000000000 ) ) ;
#23 = AXIS2_PLACEMENT_3D ( 'NONE', #177, #263, #222 ) ;
#24 = PLANE ( 'NONE',  #139 ) ;
#25 = DIRECTION ( 'NONE',  ( 0.0000000000000000000, 1.000000000000000000, 0.0000000000000000000 ) ) ;
#26 = CARTESIAN_POINT ( 'NONE',  ( 5.691101207231111931E-14, 1.499999999999995559, 16.29996169223920433 ) ) ;
#27 = EDGE_CURVE ( 'NONE', #196, #196, #125, .T. ) ;
#28 = CARTESIAN_POINT ( 'NONE',  ( 0.0000000000000000000, 0.0000000000000000000, 0.0000000000000000000 ) ) ;
#29 = CIRCLE ( 'NONE', #6, 0.4635000000000000231 ) ;
#30 = CARTESIAN_POINT ( 'NONE',  ( 3.491481338843133355E-14, 0.4199999999999984857, 10.00000000000000000 ) ) ;
#31 = CC_DESIGN_DATE_AND_TIME_ASSIGNMENT ( #35, #132, ( #195 ) ) ;
#32 = VERTEX_POINT ( 'NONE', #262 ) ;
#33 = PERSON_AND_ORGANIZATION ( #290, #227 ) ;
#34 = AXIS2_PLACEMENT_3D ( 'NONE', #170, #283, #51 ) ;
#35 = DATE_AND_TIME ( #272, #200 ) ;
#36 = EDGE_LOOP ( 'NONE', ( #246 ) ) ;
#37 = CONICAL_SURFACE ( 'NONE', #19, 0.4634999999999994680, 0.5235987755982927094 ) ;
#38 = CC_DESIGN_SECURITY_CLASSIFICATION ( #195, ( #300 ) ) ;
#39 = PERSON_AND_ORGANIZATION_ROLE ( 'design_supplier' ) ;
#40 = DIRECTION ( 'NONE',  ( -4.155188661029639631E-31, -1.000000000000000000, -1.169581631591699704E-16 ) ) ;
#41 = COORDINATED_UNIVERSAL_TIME_OFFSET ( 1, 0, .AHEAD. ) ;
#42 = FACE_OUTER_BOUND ( 'NONE', #73, .T. ) ;
#43 = CLOSED_SHELL ( 'NONE', ( #281, #98, #161, #217 ) ) ;
#44 = FACE_OUTER_BOUND ( 'NONE', #185, .T. ) ;
#45 = MANIFOLD_SOLID_BREP ( 'Corps-Déplacer/Copier1[2]', #43 ) ;
#46 = DIRECTION ( 'NONE',  ( -3.491481338843133355E-15, 1.224646799147352961E-16, -1.000000000000000000 ) ) ;
#47 = ADVANCED_FACE ( 'NONE', ( #95 ), #24, .F. ) ;
#48 = EDGE_LOOP ( 'NONE', ( #212 ) ) ;
#49 = CARTESIAN_POINT ( 'NONE',  ( 0.0000000000000000000, 0.0000000000000000000, 0.0000000000000000000 ) ) ;
#50 = AXIS2_PLACEMENT_3D ( 'NONE', #174, #130, #257 ) ;
#51 = DIRECTION ( 'NONE',  ( 0.0000000000000000000, 1.000000000000000000, 0.0000000000000000000 ) ) ;
#52 = DIRECTION ( 'NONE',  ( 4.275831445896957731E-31, 1.000000000000000000, 1.224646799147353207E-16 ) ) ;
#53 = CC_DESIGN_PERSON_AND_ORGANIZATION_ASSIGNMENT ( #298, #61, ( #195 ) ) ;
#54 = PLANE ( 'NONE',  #23 ) ;
#55 = PERSON_AND_ORGANIZATION_ROLE ( 'creator' ) ;
#56 = DIRECTION ( 'NONE',  ( 0.0000000000000000000, 1.000000000000000000, 0.0000000000000000000 ) ) ;
#57 = CALENDAR_DATE ( 2021, 29, 11 ) ;
#58 = VERTEX_POINT ( 'NONE', #129 ) ;
#59 = PERSON_AND_ORGANIZATION ( #290, #227 ) ;
#60 = PRODUCT ( '200035', '200035', '', ( #9 ) ) ;
#61 = PERSON_AND_ORGANIZATION_ROLE ( 'classification_officer' ) ;
#62 = PERSON_AND_ORGANIZATION_ROLE ( 'design_owner' ) ;
#63 = EDGE_LOOP ( 'NONE', ( #184 ) ) ;
#64 = EDGE_LOOP ( 'NONE', ( #156 ) ) ;
#65 = LOCAL_TIME ( 15, 49, 24.00000000000000000, #128 ) ;
#66 = CARTESIAN_POINT ( 'NONE',  ( 6.982962677686265724E-16, -2.449293598294705305E-17, 0.1999999999999999556 ) ) ;
#67 = DIRECTION ( 'NONE',  ( -3.491481338843133355E-15, 1.224646799147352961E-16, -1.000000000000000000 ) ) ;
#68 = CARTESIAN_POINT ( 'NONE',  ( 1.745740669421566678E-14, 3.475693296318845619E-33, 5.000000000000000000 ) ) ;
#69 = FACE_BOUND ( 'NONE', #16, .T. ) ;
#70 = AXIS2_PLACEMENT_3D ( 'NONE', #75, #235, #25 ) ;
#71 = CC_DESIGN_DATE_AND_TIME_ASSIGNMENT ( #274, #261, ( #186 ) ) ;
#72 = PLANE ( 'NONE',  #103 ) ;
#73 = EDGE_LOOP ( 'NONE', ( #252 ) ) ;
#74 = FACE_OUTER_BOUND ( 'NONE', #48, .T. ) ;
#75 = CARTESIAN_POINT ( 'NONE',  ( 3.612739213212769742E-14, -1.267178336138866772E-15, 10.34729635533384773 ) ) ;
#76 = FACE_OUTER_BOUND ( 'NONE', #253, .T. ) ;
#77 = DIRECTION ( 'NONE',  ( 3.491481338843133355E-15, -1.224646799147352961E-16, 1.000000000000000000 ) ) ;
#78 = AXIS2_PLACEMENT_3D ( 'NONE', #91, #46, #187 ) ;
#79 = CIRCLE ( 'NONE', #78, 0.3480299461620758872 ) ;
#80 = DIRECTION ( 'NONE',  ( 0.0000000000000000000, -1.000000000000000000, 0.0000000000000000000 ) ) ;
#81 = DATE_AND_TIME ( #57, #243 ) ;
#82 = AXIS2_PLACEMENT_3D ( 'NONE', #141, #20, #167 ) ;
#83 = APPLICATION_CONTEXT ( 'configuration controlled 3d designs of mechanical parts and assemblies' ) ;
#84 = PERSON_AND_ORGANIZATION ( #290, #227 ) ;
#85 = EDGE_LOOP ( 'NONE', ( #87 ) ) ;
#86 = CC_DESIGN_PERSON_AND_ORGANIZATION_ASSIGNMENT ( #267, #39, ( #300 ) ) ;
#87 = ORIENTED_EDGE ( 'NONE', *, *, #106, .F. ) ;
#88 = ORIENTED_EDGE ( 'NONE', *, *, #142, .T. ) ;
#89 = AXIS2_PLACEMENT_3D ( 'NONE', #249, #120, #164 ) ;
#90 = APPROVAL_PERSON_ORGANIZATION ( #84, #244, #12 ) ;
#91 = CARTESIAN_POINT ( 'NONE',  ( -2.434485301105210017E-31, 8.539024964565975180E-33, -6.972643026961879356E-17 ) ) ;
#92 = PLANE ( 'NONE',  #14 ) ;
#93 = EDGE_LOOP ( 'NONE', ( #202 ) ) ;
#94 = CC_DESIGN_PERSON_AND_ORGANIZATION_ASSIGNMENT ( #204, #180, ( #300 ) ) ;
#95 = FACE_OUTER_BOUND ( 'NONE', #93, .T. ) ;
#96 = DIRECTION ( 'NONE',  ( -4.275831445896957731E-31, -1.000000000000000000, -1.224646799147352961E-16 ) ) ;
#97 = DIRECTION ( 'NONE',  ( -3.491481338843133355E-15, 1.224646799147352961E-16, -1.000000000000000000 ) ) ;
#98 = ADVANCED_FACE ( 'NONE', ( #168, #2 ), #37, .T. ) ;
#99 = CARTESIAN_POINT ( 'NONE',  ( 1.326762908760390423E-13, -4.653657836759941152E-15, 38.00000000000000000 ) ) ;
#100 = APPROVAL_PERSON_ORGANIZATION ( #201, #240, #169 ) ;
#101 = CARTESIAN_POINT ( 'NONE',  ( 1.772046959787181407E-14, 0.4199999999999987077, 5.075344210129248523 ) ) ;
#102 = EDGE_CURVE ( 'NONE', #32, #32, #237, .T. ) ;
#103 = AXIS2_PLACEMENT_3D ( 'NONE', #135, #280, #210 ) ;
#104 = SHAPE_DEFINITION_REPRESENTATION ( #279, #109 ) ;
#105 = APPROVAL_ROLE ( '' ) ;
#106 = EDGE_CURVE ( 'NONE', #150, #150, #171, .T. ) ;
#107 = CIRCLE ( 'NONE', #34, 0.4199999999999997624 ) ;
#108 = ORIENTED_EDGE ( 'NONE', *, *, #173, .F. ) ;
#109 = ADVANCED_BREP_SHAPE_REPRESENTATION ( '200035', ( #148, #45, #131 ), #254 ) ;
#110 = EDGE_LOOP ( 'NONE', ( #216 ) ) ;
#111 = APPLICATION_CONTEXT ( 'configuration controlled 3d designs of mechanical parts and assemblies' ) ;
#112 = FACE_OUTER_BOUND ( 'NONE', #85, .T. ) ;
#113 = CC_DESIGN_APPROVAL ( #299, ( #186 ) ) ;
#114 = DIRECTION ( 'NONE',  ( 4.275831445896957731E-31, 1.000000000000000000, 1.224646799147352961E-16 ) ) ;
#115 = DIRECTION ( 'NONE',  ( -3.491481338843133355E-15, 1.224646799147352961E-16, -1.000000000000000000 ) ) ;
#116 = ADVANCED_FACE ( 'NONE', ( #112, #69 ), #266, .T. ) ;
#117 = CYLINDRICAL_SURFACE ( 'NONE', #291, 0.4634999999999997455 ) ;
#118 = EDGE_LOOP ( 'NONE', ( #230 ) ) ;
#119 = AXIS2_PLACEMENT_3D ( 'NONE', #49, #189, #52 ) ;
#120 = DIRECTION ( 'NONE',  ( -3.491481338843133355E-15, 1.224646799147352961E-16, -1.000000000000000000 ) ) ;
#121 = APPROVAL_DATE_TIME ( #136, #240 ) ;
#122 = FACE_OUTER_BOUND ( 'NONE', #13, .T. ) ;
#123 =( LENGTH_UNIT ( ) NAMED_UNIT ( * ) SI_UNIT ( .MILLI., .METRE. ) );
#124 = DIRECTION ( 'NONE',  ( 0.0000000000000000000, 0.0000000000000000000, 1.000000000000000000 ) ) ;
#125 = CIRCLE ( 'NONE', #259, 0.4634999999999994680 ) ;
#126 = UNCERTAINTY_MEASURE_WITH_UNIT (LENGTH_MEASURE( 1.000000000000000082E-05 ), #123, 'distance_accuracy_value', 'NONE');
#127 = APPLICATION_PROTOCOL_DEFINITION ( 'international standard', 'config_control_design', 1994, #83 ) ;
#128 = COORDINATED_UNIVERSAL_TIME_OFFSET ( 1, 0, .AHEAD. ) ;
#129 = CARTESIAN_POINT ( 'NONE',  ( 1.745740669421566678E-14, 0.4634999999999994680, 5.000000000000000000 ) ) ;
#130 = DIRECTION ( 'NONE',  ( -3.491481338843133355E-15, 1.224646799147352961E-16, -1.000000000000000000 ) ) ;
#131 = AXIS2_PLACEMENT_3D ( 'NONE', #28, #124, #220 ) ;
#132 = DATE_TIME_ROLE ( 'classification_date' ) ;
#133 = ORIENTED_EDGE ( 'NONE', *, *, #102, .F. ) ;
#134 = CALENDAR_DATE ( 2021, 29, 11 ) ;
#135 = CARTESIAN_POINT ( 'NONE',  ( 1.326762908760390423E-13, 8.998558695971099120E-33, 38.00000000000000000 ) ) ;
#136 = DATE_AND_TIME ( #208, #270 ) ;
#137 = ADVANCED_FACE ( 'NONE', ( #42 ), #72, .F. ) ;
#138 = CARTESIAN_POINT ( 'NONE',  ( 6.982962677686265724E-16, -2.449293598294705305E-17, 0.1999999999999999556 ) ) ;
#139 = AXIS2_PLACEMENT_3D ( 'NONE', #160, #248, #96 ) ;
#140 = DIRECTION ( 'NONE',  ( -3.491481338843133355E-15, 1.224646799147352961E-16, -1.000000000000000000 ) ) ;
#141 = CARTESIAN_POINT ( 'NONE',  ( 1.772046959787181407E-14, -6.215504041505835072E-16, 5.075344210129248523 ) ) ;
#142 = EDGE_CURVE ( 'NONE', #7, #7, #79, .T. ) ;
#143 = ORIENTED_EDGE ( 'NONE', *, *, #27, .T. ) ;
#144 = CONICAL_SURFACE ( 'NONE', #297, 1.499999999999997335, 0.1745329251994262032 ) ;
#145 = DIRECTION ( 'NONE',  ( -3.491481338843133355E-15, 1.224646799147352961E-16, -1.000000000000000000 ) ) ;
#146 = DIRECTION ( 'NONE',  ( -3.491481338843133355E-15, 1.224646799147352961E-16, -1.000000000000000000 ) ) ;
#147 = CARTESIAN_POINT ( 'NONE',  ( 3.612739213212769742E-14, 0.4503844939755786148, 10.34729635533384773 ) ) ;
#148 = MANIFOLD_SOLID_BREP ( 'Corps-Déplacer/Copier1[1]', #265 ) ;
#149 = TOROIDAL_SURFACE ( 'NONE', #277, 2.419999999999999929, 2.000000000000000888 ) ;
#150 = VERTEX_POINT ( 'NONE', #292 ) ;
#151 = FACE_OUTER_BOUND ( 'NONE', #242, .T. ) ;
#152 = EDGE_CURVE ( 'NONE', #236, #236, #247, .T. ) ;
#153 = ORIENTED_EDGE ( 'NONE', *, *, #302, .T. ) ;
#154 = APPROVAL_DATE_TIME ( #223, #244 ) ;
#155 = APPROVAL_PERSON_ORGANIZATION ( #33, #299, #105 ) ;
#156 = ORIENTED_EDGE ( 'NONE', *, *, #152, .T. ) ;
#157 = EDGE_LOOP ( 'NONE', ( #275 ) ) ;
#158 = ADVANCED_FACE ( 'NONE', ( #211, #1 ), #149, .F. ) ;
#159 = CIRCLE ( 'NONE', #70, 0.4503844939755798360 ) ;
#160 = CARTESIAN_POINT ( 'NONE',  ( 1.745740669421566678E-14, 3.475693296318845619E-33, 5.000000000000000000 ) ) ;
#161 = ADVANCED_FACE ( 'NONE', ( #214, #44 ), #117, .T. ) ;
#162 = SECURITY_CLASSIFICATION_LEVEL ( 'unclassified' ) ;
#163 = DIRECTION ( 'NONE',  ( 0.0000000000000000000, 1.000000000000000000, 0.0000000000000000000 ) ) ;
#164 = DIRECTION ( 'NONE',  ( 0.0000000000000000000, 1.000000000000000000, 0.0000000000000000000 ) ) ;
#165 = AXIS2_PLACEMENT_3D ( 'NONE', #232, #67, #231 ) ;
#166 = CARTESIAN_POINT ( 'NONE',  ( 1.745740669421566678E-14, -6.123233995736765296E-16, 5.000000000000000000 ) ) ;
#167 = DIRECTION ( 'NONE',  ( 0.0000000000000000000, 1.000000000000000000, 0.0000000000000000000 ) ) ;
#168 = FACE_BOUND ( 'NONE', #110, .T. ) ;
#169 = APPROVAL_ROLE ( '' ) ;
#170 = CARTESIAN_POINT ( 'NONE',  ( 3.491481338843133355E-14, -1.224646799147353059E-15, 10.00000000000000000 ) ) ;
#171 = CIRCLE ( 'NONE', #89, 1.500000000000003331 ) ;
#172 = CYLINDRICAL_SURFACE ( 'NONE', #250, 0.4199999999999995404 ) ;
#173 = EDGE_CURVE ( 'NONE', #239, #239, #107, .T. ) ;
#174 = CARTESIAN_POINT ( 'NONE',  ( 1.772046959787181407E-14, -6.215504041505835072E-16, 5.075344210129248523 ) ) ;
#175 = CARTESIAN_POINT ( 'NONE',  ( 5.691101207231111931E-14, -1.996169591262521320E-15, 16.29996169223920433 ) ) ;
#176 = VERTEX_POINT ( 'NONE', #287 ) ;
#177 = CARTESIAN_POINT ( 'NONE',  ( -1.217242650552605009E-31, 4.269512482282987590E-33, -3.486321513480939678E-17 ) ) ;
#178 = CIRCLE ( 'NONE', #209, 1.499999999999997335 ) ;
#179 = AXIS2_PLACEMENT_3D ( 'NONE', #99, #146, #56 ) ;
#180 = PERSON_AND_ORGANIZATION_ROLE ( 'creator' ) ;
#181 = APPROVAL_DATE_TIME ( #81, #299 ) ;
#182 = COORDINATED_UNIVERSAL_TIME_OFFSET ( 1, 0, .AHEAD. ) ;
#183 = PERSON_AND_ORGANIZATION ( #290, #227 ) ;
#184 = ORIENTED_EDGE ( 'NONE', *, *, #198, .F. ) ;
#185 = EDGE_LOOP ( 'NONE', ( #234 ) ) ;
#186 = PRODUCT_DEFINITION ( 'UNKNOWN', '', #300, #8 ) ;
#187 = DIRECTION ( 'NONE',  ( 4.275831445896957731E-31, 1.000000000000000000, 1.224646799147352961E-16 ) ) ;
#188 = EDGE_LOOP ( 'NONE', ( #205 ) ) ;
#189 = DIRECTION ( 'NONE',  ( -3.491481338843133355E-15, 1.224646799147352961E-16, -1.000000000000000000 ) ) ;
#190 = DIRECTION ( 'NONE',  ( -3.491481338843133355E-15, 1.224646799147352961E-16, -1.000000000000000000 ) ) ;
#191 = CIRCLE ( 'NONE', #179, 1.200000000000003286 ) ;
#192 = ADVANCED_FACE ( 'NONE', ( #74, #255 ), #289, .T. ) ;
#193 = ORIENTED_EDGE ( 'NONE', *, *, #173, .T. ) ;
#194 = DIRECTION ( 'NONE',  ( 4.275831445896957731E-31, 1.000000000000000000, 1.224646799147352961E-16 ) ) ;
#195 = SECURITY_CLASSIFICATION ( '', '', #162 ) ;
#196 = VERTEX_POINT ( 'NONE', #260 ) ;
#197 = FACE_BOUND ( 'NONE', #157, .T. ) ;
#198 = EDGE_CURVE ( 'NONE', #58, #58, #29, .T. ) ;
#199 =( NAMED_UNIT ( * ) SI_UNIT ( $, .STERADIAN. ) SOLID_ANGLE_UNIT ( ) );
#200 = LOCAL_TIME ( 15, 49, 24.00000000000000000, #295 ) ;
#201 = PERSON_AND_ORGANIZATION ( #290, #227 ) ;
#202 = ORIENTED_EDGE ( 'NONE', *, *, #102, .T. ) ;
#203 = CONICAL_SURFACE ( 'NONE', #50, 0.4199999999999993183, 0.5235987755982908221 ) ;
#204 = PERSON_AND_ORGANIZATION ( #290, #227 ) ;
#205 = ORIENTED_EDGE ( 'NONE', *, *, #106, .T. ) ;
#206 = EDGE_CURVE ( 'NONE', #10, #10, #159, .T. ) ;
#207 = EDGE_LOOP ( 'NONE', ( #268 ) ) ;
#208 = CALENDAR_DATE ( 2021, 29, 11 ) ;
#209 = AXIS2_PLACEMENT_3D ( 'NONE', #5, #190, #251 ) ;
#210 = DIRECTION ( 'NONE',  ( 4.275831445896957731E-31, 1.000000000000000000, 1.224646799147352961E-16 ) ) ;
#211 = FACE_OUTER_BOUND ( 'NONE', #273, .T. ) ;
#212 = ORIENTED_EDGE ( 'NONE', *, *, #15, .F. ) ;
#213 = ADVANCED_FACE ( 'NONE', ( #3, #122 ), #172, .T. ) ;
#214 = FACE_OUTER_BOUND ( 'NONE', #36, .T. ) ;
#215 = AXIS2_PLACEMENT_3D ( 'NONE', #301, #97, #163 ) ;
#216 = ORIENTED_EDGE ( 'NONE', *, *, #142, .F. ) ;
#217 = ADVANCED_FACE ( 'NONE', ( #303 ), #92, .T. ) ;
#218 = FACE_BOUND ( 'NONE', #64, .T. ) ;
#219 = FACE_OUTER_BOUND ( 'NONE', #269, .T. ) ;
#220 = DIRECTION ( 'NONE',  ( 1.000000000000000000, 0.0000000000000000000, 0.0000000000000000000 ) ) ;
#221 =( NAMED_UNIT ( * ) PLANE_ANGLE_UNIT ( ) SI_UNIT ( $, .RADIAN. ) );
#222 = DIRECTION ( 'NONE',  ( -4.275831445896957731E-31, -1.000000000000000000, -1.224646799147352961E-16 ) ) ;
#223 = DATE_AND_TIME ( #11, #228 ) ;
#224 = APPROVAL_STATUS ( 'not_yet_approved' ) ;
#225 = ADVANCED_FACE ( 'NONE', ( #197, #76 ), #144, .T. ) ;
#226 = APPLICATION_PROTOCOL_DEFINITION ( 'international standard', 'config_control_design', 1994, #111 ) ;
#227 = ORGANIZATION ( 'UNSPECIFIED', 'UNSPECIFIED', '' ) ;
#228 = LOCAL_TIME ( 15, 49, 24.00000000000000000, #182 ) ;
#229 = PRODUCT_RELATED_PRODUCT_CATEGORY ( 'detail', '', ( #60 ) ) ;
#230 = ORIENTED_EDGE ( 'NONE', *, *, #152, .F. ) ;
#231 = DIRECTION ( 'NONE',  ( 0.0000000000000000000, 1.000000000000000000, 0.0000000000000000000 ) ) ;
#232 = CARTESIAN_POINT ( 'NONE',  ( 1.745740669421566678E-14, -6.123233995736765296E-16, 5.000000000000000000 ) ) ;
#233 = DIRECTION ( 'NONE',  ( 4.275831445896956855E-31, 1.000000000000000000, 1.224646799147352961E-16 ) ) ;
#234 = ORIENTED_EDGE ( 'NONE', *, *, #198, .T. ) ;
#235 = DIRECTION ( 'NONE',  ( -3.491481338843133355E-15, 1.224646799147352961E-16, -1.000000000000000000 ) ) ;
#236 = VERTEX_POINT ( 'NONE', #101 ) ;
#237 = CIRCLE ( 'NONE', #165, 0.4635000000000000231 ) ;
#238 = DIRECTION ( 'NONE',  ( 3.491481338843133355E-15, -1.224646799147352961E-16, 1.000000000000000000 ) ) ;
#239 = VERTEX_POINT ( 'NONE', #30 ) ;
#240 = APPROVAL ( #282, 'UNSPECIFIED' ) ;
#241 = VERTEX_POINT ( 'NONE', #26 ) ;
#242 = EDGE_LOOP ( 'NONE', ( #133 ) ) ;
#243 = LOCAL_TIME ( 15, 49, 24.00000000000000000, #294 ) ;
#244 = APPROVAL ( #224, 'UNSPECIFIED' ) ;
#245 = APPROVAL_STATUS ( 'not_yet_approved' ) ;
#246 = ORIENTED_EDGE ( 'NONE', *, *, #27, .F. ) ;
#247 = CIRCLE ( 'NONE', #82, 0.4199999999999993183 ) ;
#248 = DIRECTION ( 'NONE',  ( 3.491481338843133355E-15, -1.224646799147352961E-16, 1.000000000000000000 ) ) ;
#249 = CARTESIAN_POINT ( 'NONE',  ( 1.316288464743861212E-13, -4.616918432785520292E-15, 37.69999999999999574 ) ) ;
#250 = AXIS2_PLACEMENT_3D ( 'NONE', #256, #18, #114 ) ;
#251 = DIRECTION ( 'NONE',  ( 0.0000000000000000000, 1.000000000000000000, 0.0000000000000000000 ) ) ;
#252 = ORIENTED_EDGE ( 'NONE', *, *, #302, .F. ) ;
#253 = EDGE_LOOP ( 'NONE', ( #17 ) ) ;
#254 =( GEOMETRIC_REPRESENTATION_CONTEXT ( 3 ) GLOBAL_UNCERTAINTY_ASSIGNED_CONTEXT ( ( #126 ) ) GLOBAL_UNIT_ASSIGNED_CONTEXT ( ( #123, #221, #199 ) ) REPRESENTATION_CONTEXT ( 'NONE', 'WORKASPACE' ) );
#255 = FACE_OUTER_BOUND ( 'NONE', #188, .T. ) ;
#256 = CARTESIAN_POINT ( 'NONE',  ( 0.0000000000000000000, 0.0000000000000000000, 0.0000000000000000000 ) ) ;
#257 = DIRECTION ( 'NONE',  ( 0.0000000000000000000, 1.000000000000000000, 0.0000000000000000000 ) ) ;
#258 = CC_DESIGN_PERSON_AND_ORGANIZATION_ASSIGNMENT ( #183, #55, ( #186 ) ) ;
#259 = AXIS2_PLACEMENT_3D ( 'NONE', #66, #115, #276 ) ;
#260 = CARTESIAN_POINT ( 'NONE',  ( 6.982962677686267697E-16, 0.4634999999999994680, 0.2000000000000000111 ) ) ;
#261 = DATE_TIME_ROLE ( 'creation_date' ) ;
#262 = CARTESIAN_POINT ( 'NONE',  ( 1.745740669421566678E-14, 0.4634999999999994680, 5.000000000000000000 ) ) ;
#263 = DIRECTION ( 'NONE',  ( 3.491481338843133355E-15, -1.224646799147352961E-16, 1.000000000000000000 ) ) ;
#264 = ADVANCED_FACE ( 'NONE', ( #151, #218 ), #203, .T. ) ;
#265 = CLOSED_SHELL ( 'NONE', ( #47, #264, #213, #158, #225, #192, #116, #137 ) ) ;
#266 = CONICAL_SURFACE ( 'NONE', #215, 1.200000000000003286, 0.7853981633974453924 ) ;
#267 = PERSON_AND_ORGANIZATION ( #290, #227 ) ;
#268 = ORIENTED_EDGE ( 'NONE', *, *, #206, .T. ) ;
#269 = EDGE_LOOP ( 'NONE', ( #88 ) ) ;
#270 = LOCAL_TIME ( 15, 49, 24.00000000000000000, #41 ) ;
#271 = CC_DESIGN_APPROVAL ( #244, ( #195 ) ) ;
#272 = CALENDAR_DATE ( 2021, 29, 11 ) ;
#273 = EDGE_LOOP ( 'NONE', ( #108 ) ) ;
#274 = DATE_AND_TIME ( #134, #65 ) ;
#275 = ORIENTED_EDGE ( 'NONE', *, *, #206, .F. ) ;
#276 = DIRECTION ( 'NONE',  ( 4.155188661029639631E-31, 1.000000000000000000, 1.169581631591699704E-16 ) ) ;
#277 = AXIS2_PLACEMENT_3D ( 'NONE', #21, #140, #233 ) ;
#278 = DIRECTION ( 'NONE',  ( 3.491481338843133355E-15, -1.224646799147352961E-16, 1.000000000000000000 ) ) ;
#279 = PRODUCT_DEFINITION_SHAPE ( 'NONE', 'NONE',  #186 ) ;
#280 = DIRECTION ( 'NONE',  ( -3.491481338843133355E-15, 1.224646799147352961E-16, -1.000000000000000000 ) ) ;
#281 = ADVANCED_FACE ( 'NONE', ( #219 ), #54, .F. ) ;
#282 = APPROVAL_STATUS ( 'not_yet_approved' ) ;
#283 = DIRECTION ( 'NONE',  ( -3.491481338843133355E-15, 1.224646799147352961E-16, -1.000000000000000000 ) ) ;
#284 = DIRECTION ( 'NONE',  ( 0.0000000000000000000, 1.000000000000000000, 0.0000000000000000000 ) ) ;
#285 = CC_DESIGN_APPROVAL ( #240, ( #300 ) ) ;
#286 = CARTESIAN_POINT ( 'NONE',  ( -9.463679131915806782E-32, 0.3480299461620758872, -2.710505431213761085E-17 ) ) ;
#287 = CARTESIAN_POINT ( 'NONE',  ( 1.326762908760390423E-13, 1.199999999999998845, 38.00000000000000000 ) ) ;
#288 = DIRECTION ( 'NONE',  ( -4.275831445896957731E-31, -1.000000000000000000, -1.224646799147352961E-16 ) ) ;
#289 = CYLINDRICAL_SURFACE ( 'NONE', #119, 1.500000000000000444 ) ;
#290 = PERSON ( 'UNSPECIFIED', 'UNSPECIFIED', 'UNSPECIFIED', ('UNSPECIFIED'), ('UNSPECIFIED'), ('UNSPECIFIED') ) ;
#291 = AXIS2_PLACEMENT_3D ( 'NONE', #22, #4, #194 ) ;
#292 = CARTESIAN_POINT ( 'NONE',  ( 1.316288464743861212E-13, 1.499999999999998668, 37.69999999999999574 ) ) ;
#293 = CC_DESIGN_PERSON_AND_ORGANIZATION_ASSIGNMENT ( #59, #62, ( #60 ) ) ;
#294 = COORDINATED_UNIVERSAL_TIME_OFFSET ( 1, 0, .AHEAD. ) ;
#295 = COORDINATED_UNIVERSAL_TIME_OFFSET ( 1, 0, .AHEAD. ) ;
#296 = EDGE_LOOP ( 'NONE', ( #143 ) ) ;
#297 = AXIS2_PLACEMENT_3D ( 'NONE', #175, #238, #80 ) ;
#298 = PERSON_AND_ORGANIZATION ( #290, #227 ) ;
#299 = APPROVAL ( #245, 'UNSPECIFIED' ) ;
#300 = PRODUCT_DEFINITION_FORMATION_WITH_SPECIFIED_SOURCE ( 'ANY', '', #60, .NOT_KNOWN. ) ;
#301 = CARTESIAN_POINT ( 'NONE',  ( 1.326762908760390423E-13, -4.653657836759941152E-15, 38.00000000000000000 ) ) ;
#302 = EDGE_CURVE ( 'NONE', #176, #176, #191, .T. ) ;
#303 = FACE_OUTER_BOUND ( 'NONE', #63, .T. ) ;
ENDSEC;
END-ISO-10303-21;
