ISO-10303-21;
HEADER;
FILE_DESCRIPTION (( 'STEP AP203' ),
    '1' );
FILE_NAME ('200034.step',
    '2021-11-29T14:49:23',
    ( '' ),
    ( '' ),
    'SwSTEP 2.0',
    'SolidWorks 2019',
    '' );
FILE_SCHEMA (( 'CONFIG_CONTROL_DESIGN' ));
ENDSEC;

DATA;
#1 = MANIFOLD_SOLID_BREP ( 'Corps-Déplacer/Copier1[1]', #186 ) ;
#2 = APPROVAL_ROLE ( '' ) ;
#3 = EDGE_LOOP ( 'NONE', ( #216 ) ) ;
#4 = DATE_AND_TIME ( #92, #266 ) ;
#5 = EDGE_LOOP ( 'NONE', ( #118 ) ) ;
#6 = CALENDAR_DATE ( 2021, 29, 11 ) ;
#7 = CC_DESIGN_PERSON_AND_ORGANIZATION_ASSIGNMENT ( #210, #112, ( #183 ) ) ;
#8 = ORIENTED_EDGE ( 'NONE', *, *, #16, .F. ) ;
#9 = DIRECTION ( 'NONE',  ( -3.491481338843133355E-15, 1.224646799147352961E-16, -1.000000000000000000 ) ) ;
#10 = CC_DESIGN_PERSON_AND_ORGANIZATION_ASSIGNMENT ( #49, #137, ( #206 ) ) ;
#11 = FACE_OUTER_BOUND ( 'NONE', #87, .T. ) ;
#12 = FACE_OUTER_BOUND ( 'NONE', #13, .T. ) ;
#13 = EDGE_LOOP ( 'NONE', ( #111 ) ) ;
#14 = AXIS2_PLACEMENT_3D ( 'NONE', #239, #64, #199 ) ;
#15 = DIRECTION ( 'NONE',  ( -4.275831445896957731E-31, -1.000000000000000000, -1.224646799147352961E-16 ) ) ;
#16 = EDGE_CURVE ( 'NONE', #269, #269, #130, .T. ) ;
#17 = CARTESIAN_POINT ( 'NONE',  ( 1.745740669421566678E-14, 0.4784999999999993703, 5.000000000000000000 ) ) ;
#18 = CARTESIAN_POINT ( 'NONE',  ( -1.249311386396832518E-31, 4.381994465982627732E-33, -3.578170023416991581E-17 ) ) ;
#19 = PLANE ( 'NONE',  #136 ) ;
#20 = CARTESIAN_POINT ( 'NONE',  ( 3.612739213212769111E-14, 0.4553844939755795074, 10.34729635533384595 ) ) ;
#21 = CARTESIAN_POINT ( 'NONE',  ( 6.982962677686267697E-16, 0.4784999999999993703, 0.2000000000000000111 ) ) ;
#22 = DIRECTION ( 'NONE',  ( 0.0000000000000000000, 0.0000000000000000000, 1.000000000000000000 ) ) ;
#23 = ADVANCED_FACE ( 'NONE', ( #187 ), #74, .F. ) ;
#24 = AXIS2_PLACEMENT_3D ( 'NONE', #247, #100, #175 ) ;
#25 =( NAMED_UNIT ( * ) PLANE_ANGLE_UNIT ( ) SI_UNIT ( $, .RADIAN. ) );
#26 = PERSON_AND_ORGANIZATION ( #248, #188 ) ;
#27 = DATE_AND_TIME ( #6, #244 ) ;
#28 = AXIS2_PLACEMENT_3D ( 'NONE', #167, #34, #73 ) ;
#29 = AXIS2_PLACEMENT_3D ( 'NONE', #18, #149, #15 ) ;
#30 = FACE_OUTER_BOUND ( 'NONE', #278, .T. ) ;
#31 = DIRECTION ( 'NONE',  ( 4.275831445896957731E-31, 1.000000000000000000, 1.224646799147352961E-16 ) ) ;
#32 = DIRECTION ( 'NONE',  ( 0.0000000000000000000, 1.000000000000000000, 0.0000000000000000000 ) ) ;
#33 = SECURITY_CLASSIFICATION ( '', '', #282 ) ;
#34 = DIRECTION ( 'NONE',  ( -3.491481338843133355E-15, 1.224646799147352961E-16, -1.000000000000000000 ) ) ;
#35 = EDGE_LOOP ( 'NONE', ( #287 ) ) ;
#36 = PRODUCT_DEFINITION_SHAPE ( 'NONE', 'NONE',  #206 ) ;
#37 = CYLINDRICAL_SURFACE ( 'NONE', #24, 0.4784999999999996478 ) ;
#38 = APPROVAL_PERSON_ORGANIZATION ( #254, #60, #47 ) ;
#39 = CARTESIAN_POINT ( 'NONE',  ( 1.326762908760390423E-13, -4.653657836759941152E-15, 38.00000000000000000 ) ) ;
#40 = CARTESIAN_POINT ( 'NONE',  ( 1.316288464743861212E-13, 1.499999999999998668, 37.69999999999999574 ) ) ;
#41 = FACE_BOUND ( 'NONE', #3, .T. ) ;
#42 = AXIS2_PLACEMENT_3D ( 'NONE', #236, #166, #53 ) ;
#43 = VERTEX_POINT ( 'NONE', #20 ) ;
#44 = CONICAL_SURFACE ( 'NONE', #120, 0.4784999999999993703, 0.5235987755982923764 ) ;
#45 = COORDINATED_UNIVERSAL_TIME_OFFSET ( 1, 0, .AHEAD. ) ;
#46 = CC_DESIGN_PERSON_AND_ORGANIZATION_ASSIGNMENT ( #274, #177, ( #33 ) ) ;
#47 = APPROVAL_ROLE ( '' ) ;
#48 = EDGE_LOOP ( 'NONE', ( #107 ) ) ;
#49 = PERSON_AND_ORGANIZATION ( #248, #188 ) ;
#50 = CC_DESIGN_APPROVAL ( #289, ( #33 ) ) ;
#51 = DIRECTION ( 'NONE',  ( 0.0000000000000000000, 1.000000000000000000, 0.0000000000000000000 ) ) ;
#52 = ADVANCED_FACE ( 'NONE', ( #237, #12 ), #185, .T. ) ;
#53 = DIRECTION ( 'NONE',  ( 4.275831445896957731E-31, 1.000000000000000000, 1.224646799147352961E-16 ) ) ;
#54 = EDGE_LOOP ( 'NONE', ( #265 ) ) ;
#55 = CC_DESIGN_APPROVAL ( #182, ( #183 ) ) ;
#56 = DIRECTION ( 'NONE',  ( -3.491481338843133355E-15, 1.224646799147352961E-16, -1.000000000000000000 ) ) ;
#57 = ADVANCED_FACE ( 'NONE', ( #212 ), #292, .F. ) ;
#58 = DIRECTION ( 'NONE',  ( 4.024931963191720481E-31, 1.000000000000000000, 1.132917630601364455E-16 ) ) ;
#59 = FACE_OUTER_BOUND ( 'NONE', #252, .T. ) ;
#60 = APPROVAL ( #232, 'UNSPECIFIED' ) ;
#61 = APPROVAL_PERSON_ORGANIZATION ( #26, #182, #250 ) ;
#62 = VERTEX_POINT ( 'NONE', #17 ) ;
#63 = DESIGN_CONTEXT ( 'detailed design', #288, 'design' ) ;
#64 = DIRECTION ( 'NONE',  ( -3.491481338843133355E-15, 1.224646799147352961E-16, -1.000000000000000000 ) ) ;
#65 = DIRECTION ( 'NONE',  ( -3.491481338843133355E-15, 1.224646799147352961E-16, -1.000000000000000000 ) ) ;
#66 = CIRCLE ( 'NONE', #249, 0.4249999999999999889 ) ;
#67 = EDGE_CURVE ( 'NONE', #43, #43, #259, .T. ) ;
#68 = EDGE_LOOP ( 'NONE', ( #69 ) ) ;
#69 = ORIENTED_EDGE ( 'NONE', *, *, #101, .T. ) ;
#70 = FACE_BOUND ( 'NONE', #291, .T. ) ;
#71 =( GEOMETRIC_REPRESENTATION_CONTEXT ( 3 ) GLOBAL_UNCERTAINTY_ASSIGNED_CONTEXT ( ( #172 ) ) GLOBAL_UNIT_ASSIGNED_CONTEXT ( ( #229, #25, #110 ) ) REPRESENTATION_CONTEXT ( 'NONE', 'WORKASPACE' ) );
#72 = EDGE_CURVE ( 'NONE', #82, #82, #219, .T. ) ;
#73 = DIRECTION ( 'NONE',  ( 0.0000000000000000000, 1.000000000000000000, 0.0000000000000000000 ) ) ;
#74 = PLANE ( 'NONE',  #209 ) ;
#75 = TOROIDAL_SURFACE ( 'NONE', #14, 2.425000000000000266, 2.000000000000000444 ) ;
#76 = ORIENTED_EDGE ( 'NONE', *, *, #189, .F. ) ;
#77 = VERTEX_POINT ( 'NONE', #221 ) ;
#78 = FACE_BOUND ( 'NONE', #228, .T. ) ;
#79 = ADVANCED_FACE ( 'NONE', ( #122, #70 ), #160, .T. ) ;
#80 = VERTEX_POINT ( 'NONE', #21 ) ;
#81 = DIRECTION ( 'NONE',  ( -3.491481338843133355E-15, 1.224646799147352961E-16, -1.000000000000000000 ) ) ;
#82 = VERTEX_POINT ( 'NONE', #194 ) ;
#83 = CC_DESIGN_DATE_AND_TIME_ASSIGNMENT ( #251, #200, ( #33 ) ) ;
#84 = AXIS2_PLACEMENT_3D ( 'NONE', #191, #286, #192 ) ;
#85 = AXIS2_PLACEMENT_3D ( 'NONE', #99, #81, #218 ) ;
#86 = CALENDAR_DATE ( 2021, 29, 11 ) ;
#87 = EDGE_LOOP ( 'NONE', ( #113 ) ) ;
#88 = PERSON_AND_ORGANIZATION ( #248, #188 ) ;
#89 = ORIENTED_EDGE ( 'NONE', *, *, #67, .F. ) ;
#90 = COORDINATED_UNIVERSAL_TIME_OFFSET ( 1, 0, .AHEAD. ) ;
#91 = AXIS2_PLACEMENT_3D ( 'NONE', #140, #161, #51 ) ;
#92 = CALENDAR_DATE ( 2021, 29, 11 ) ;
#93 = DIRECTION ( 'NONE',  ( 0.0000000000000000000, 1.000000000000000000, 0.0000000000000000000 ) ) ;
#94 = EDGE_LOOP ( 'NONE', ( #8 ) ) ;
#95 = CONICAL_SURFACE ( 'NONE', #91, 1.200000000000003286, 0.7853981633974453924 ) ;
#96 = DIRECTION ( 'NONE',  ( -3.491481338843133355E-15, 1.224646799147352961E-16, -1.000000000000000000 ) ) ;
#97 = EDGE_LOOP ( 'NONE', ( #279 ) ) ;
#98 = DIRECTION ( 'NONE',  ( 3.491481338843133355E-15, -1.224646799147352961E-16, 1.000000000000000000 ) ) ;
#99 = CARTESIAN_POINT ( 'NONE',  ( 1.778094382859736416E-14, -6.236715546280332998E-16, 5.092664718204937380 ) ) ;
#100 = DIRECTION ( 'NONE',  ( -3.491481338843133355E-15, 1.224646799147352961E-16, -1.000000000000000000 ) ) ;
#101 = EDGE_CURVE ( 'NONE', #77, #77, #124, .T. ) ;
#102 = CARTESIAN_POINT ( 'NONE',  ( 5.681200619910854129E-14, 1.499999999999995559, 16.27160528314111332 ) ) ;
#103 = MANIFOLD_SOLID_BREP ( 'Corps-Déplacer/Copier1[2]', #281 ) ;
#104 = LOCAL_TIME ( 15, 49, 23.00000000000000000, #45 ) ;
#105 = DIRECTION ( 'NONE',  ( 0.0000000000000000000, 1.000000000000000000, 0.0000000000000000000 ) ) ;
#106 = DIRECTION ( 'NONE',  ( 3.491481338843133355E-15, -1.224646799147352961E-16, 1.000000000000000000 ) ) ;
#107 = ORIENTED_EDGE ( 'NONE', *, *, #16, .T. ) ;
#108 = PERSON_AND_ORGANIZATION ( #248, #188 ) ;
#109 = CC_DESIGN_PERSON_AND_ORGANIZATION_ASSIGNMENT ( #108, #256, ( #238 ) ) ;
#110 =( NAMED_UNIT ( * ) SI_UNIT ( $, .STERADIAN. ) SOLID_ANGLE_UNIT ( ) );
#111 = ORIENTED_EDGE ( 'NONE', *, *, #189, .T. ) ;
#112 = PERSON_AND_ORGANIZATION_ROLE ( 'design_supplier' ) ;
#113 = ORIENTED_EDGE ( 'NONE', *, *, #163, .F. ) ;
#114 = APPLICATION_PROTOCOL_DEFINITION ( 'international standard', 'config_control_design', 1994, #288 ) ;
#115 = AXIS2_PLACEMENT_3D ( 'NONE', #143, #56, #121 ) ;
#116 = ADVANCED_FACE ( 'NONE', ( #214, #261 ), #95, .T. ) ;
#117 = CYLINDRICAL_SURFACE ( 'NONE', #193, 0.4249999999999997113 ) ;
#118 = ORIENTED_EDGE ( 'NONE', *, *, #155, .F. ) ;
#119 = CARTESIAN_POINT ( 'NONE',  ( -2.498622772793665036E-31, 8.763988931965255464E-33, -7.156340046833983163E-17 ) ) ;
#120 = AXIS2_PLACEMENT_3D ( 'NONE', #169, #243, #174 ) ;
#121 = DIRECTION ( 'NONE',  ( 0.0000000000000000000, 1.000000000000000000, 0.0000000000000000000 ) ) ;
#122 = FACE_OUTER_BOUND ( 'NONE', #5, .T. ) ;
#123 = DIRECTION ( 'NONE',  ( 3.491481338843133355E-15, -1.224646799147352961E-16, 1.000000000000000000 ) ) ;
#124 = CIRCLE ( 'NONE', #203, 0.3630299461620759560 ) ;
#125 = CARTESIAN_POINT ( 'NONE',  ( 6.982962677686265724E-16, -2.449293598294705305E-17, 0.1999999999999999556 ) ) ;
#126 = ADVANCED_FACE ( 'NONE', ( #30, #263 ), #117, .T. ) ;
#127 = VERTEX_POINT ( 'NONE', #222 ) ;
#128 = CARTESIAN_POINT ( 'NONE',  ( 1.316288464743861212E-13, -4.616918432785520292E-15, 37.69999999999999574 ) ) ;
#129 = ADVANCED_FACE ( 'NONE', ( #11, #290 ), #75, .F. ) ;
#130 = CIRCLE ( 'NONE', #176, 1.499999999999997335 ) ;
#131 = CARTESIAN_POINT ( 'NONE',  ( 1.745740669421566678E-14, -6.123233995736765296E-16, 5.000000000000000000 ) ) ;
#132 = DIRECTION ( 'NONE',  ( 1.000000000000000000, 0.0000000000000000000, 0.0000000000000000000 ) ) ;
#133 = COORDINATED_UNIVERSAL_TIME_OFFSET ( 1, 0, .AHEAD. ) ;
#134 = ORIENTED_EDGE ( 'NONE', *, *, #285, .T. ) ;
#135 = COORDINATED_UNIVERSAL_TIME_OFFSET ( 1, 0, .AHEAD. ) ;
#136 = AXIS2_PLACEMENT_3D ( 'NONE', #225, #123, #171 ) ;
#137 = PERSON_AND_ORGANIZATION_ROLE ( 'creator' ) ;
#138 = PERSON_AND_ORGANIZATION_ROLE ( 'creator' ) ;
#139 = ADVANCED_FACE ( 'NONE', ( #145 ), #246, .F. ) ;
#140 = CARTESIAN_POINT ( 'NONE',  ( 1.326762908760390423E-13, -4.653657836759941152E-15, 38.00000000000000000 ) ) ;
#141 = CIRCLE ( 'NONE', #162, 1.200000000000003286 ) ;
#142 = CARTESIAN_POINT ( 'NONE',  ( 0.0000000000000000000, 0.0000000000000000000, 0.0000000000000000000 ) ) ;
#143 = CARTESIAN_POINT ( 'NONE',  ( 1.745740669421566678E-14, -6.123233995736765296E-16, 5.000000000000000000 ) ) ;
#144 = ADVANCED_FACE ( 'NONE', ( #41, #148 ), #44, .T. ) ;
#145 = FACE_OUTER_BOUND ( 'NONE', #68, .T. ) ;
#146 = CIRCLE ( 'NONE', #253, 0.4784999999999999809 ) ;
#147 = EDGE_LOOP ( 'NONE', ( #76 ) ) ;
#148 = FACE_OUTER_BOUND ( 'NONE', #258, .T. ) ;
#149 = DIRECTION ( 'NONE',  ( 3.491481338843133355E-15, -1.224646799147352961E-16, 1.000000000000000000 ) ) ;
#150 = VERTEX_POINT ( 'NONE', #245 ) ;
#151 = DIRECTION ( 'NONE',  ( 0.0000000000000000000, 1.000000000000000000, 0.0000000000000000000 ) ) ;
#152 = APPROVAL_PERSON_ORGANIZATION ( #301, #289, #2 ) ;
#153 = DIRECTION ( 'NONE',  ( -3.491481338843133355E-15, 1.224646799147352961E-16, -1.000000000000000000 ) ) ;
#154 = DATE_TIME_ROLE ( 'creation_date' ) ;
#155 = EDGE_CURVE ( 'NONE', #62, #62, #146, .T. ) ;
#156 = CARTESIAN_POINT ( 'NONE',  ( 0.0000000000000000000, 0.0000000000000000000, 0.0000000000000000000 ) ) ;
#157 = CC_DESIGN_APPROVAL ( #60, ( #206 ) ) ;
#158 = ORIENTED_EDGE ( 'NONE', *, *, #240, .T. ) ;
#159 = APPROVAL_DATE_TIME ( #4, #182 ) ;
#160 = CONICAL_SURFACE ( 'NONE', #303, 0.4249999999999993783, 0.5235987755982918213 ) ;
#161 = DIRECTION ( 'NONE',  ( -3.491481338843133355E-15, 1.224646799147352961E-16, -1.000000000000000000 ) ) ;
#162 = AXIS2_PLACEMENT_3D ( 'NONE', #39, #195, #105 ) ;
#163 = EDGE_CURVE ( 'NONE', #150, #150, #66, .T. ) ;
#164 = CARTESIAN_POINT ( 'NONE',  ( 5.681200619910854129E-14, -1.992696932698792137E-15, 16.27160528314111332 ) ) ;
#165 = DIRECTION ( 'NONE',  ( -3.491481338843133355E-15, 1.224646799147352961E-16, -1.000000000000000000 ) ) ;
#166 = DIRECTION ( 'NONE',  ( -3.491481338843133355E-15, 1.224646799147352961E-16, -1.000000000000000000 ) ) ;
#167 = CARTESIAN_POINT ( 'NONE',  ( 3.612739213212769111E-14, -1.267178336138866575E-15, 10.34729635533384595 ) ) ;
#168 = ADVANCED_FACE ( 'NONE', ( #78, #242 ), #275, .T. ) ;
#169 = CARTESIAN_POINT ( 'NONE',  ( 6.982962677686265724E-16, -2.449293598294705305E-17, 0.1999999999999999556 ) ) ;
#170 = CC_DESIGN_SECURITY_CLASSIFICATION ( #33, ( #183 ) ) ;
#171 = DIRECTION ( 'NONE',  ( -4.275831445896957731E-31, -1.000000000000000000, -1.224646799147352961E-16 ) ) ;
#172 = UNCERTAINTY_MEASURE_WITH_UNIT (LENGTH_MEASURE( 1.000000000000000082E-05 ), #229, 'distance_accuracy_value', 'NONE');
#173 = DIRECTION ( 'NONE',  ( -3.491481338843133355E-15, 1.224646799147352961E-16, -1.000000000000000000 ) ) ;
#174 = DIRECTION ( 'NONE',  ( -4.024931963191720481E-31, -1.000000000000000000, -1.132917630601364455E-16 ) ) ;
#175 = DIRECTION ( 'NONE',  ( 4.275831445896958607E-31, 1.000000000000000000, 1.224646799147352961E-16 ) ) ;
#176 = AXIS2_PLACEMENT_3D ( 'NONE', #164, #96, #93 ) ;
#177 = PERSON_AND_ORGANIZATION_ROLE ( 'classification_officer' ) ;
#178 = ORIENTED_EDGE ( 'NONE', *, *, #72, .F. ) ;
#179 = COORDINATED_UNIVERSAL_TIME_OFFSET ( 1, 0, .AHEAD. ) ;
#180 = ORIENTED_EDGE ( 'NONE', *, *, #264, .F. ) ;
#181 = DATE_AND_TIME ( #86, #224 ) ;
#182 = APPROVAL ( #205, 'UNSPECIFIED' ) ;
#183 = PRODUCT_DEFINITION_FORMATION_WITH_SPECIFIED_SOURCE ( 'ANY', '', #238, .NOT_KNOWN. ) ;
#184 = DATE_AND_TIME ( #280, #295 ) ;
#185 = CYLINDRICAL_SURFACE ( 'NONE', #84, 1.500000000000000444 ) ;
#186 = CLOSED_SHELL ( 'NONE', ( #23, #79, #126, #129, #168, #52, #116, #57 ) ) ;
#187 = FACE_OUTER_BOUND ( 'NONE', #208, .T. ) ;
#188 = ORGANIZATION ( 'UNSPECIFIED', 'UNSPECIFIED', '' ) ;
#189 = EDGE_CURVE ( 'NONE', #271, #271, #197, .T. ) ;
#190 = CARTESIAN_POINT ( 'NONE',  ( 1.745740669421566678E-14, 3.588175280018483708E-33, 5.000000000000000000 ) ) ;
#191 = CARTESIAN_POINT ( 'NONE',  ( 0.0000000000000000000, 0.0000000000000000000, 0.0000000000000000000 ) ) ;
#192 = DIRECTION ( 'NONE',  ( 4.275831445896957731E-31, 1.000000000000000000, 1.224646799147353207E-16 ) ) ;
#193 = AXIS2_PLACEMENT_3D ( 'NONE', #142, #165, #31 ) ;
#194 = CARTESIAN_POINT ( 'NONE',  ( 1.745740669421566678E-14, 0.4784999999999993703, 5.000000000000000000 ) ) ;
#195 = DIRECTION ( 'NONE',  ( -3.491481338843133355E-15, 1.224646799147352961E-16, -1.000000000000000000 ) ) ;
#196 = VERTEX_POINT ( 'NONE', #296 ) ;
#197 = CIRCLE ( 'NONE', #204, 1.500000000000003331 ) ;
#198 = DIRECTION ( 'NONE',  ( 0.0000000000000000000, -1.000000000000000000, 0.0000000000000000000 ) ) ;
#199 = DIRECTION ( 'NONE',  ( 4.275831445896957731E-31, 1.000000000000000000, 1.224646799147352961E-16 ) ) ;
#200 = DATE_TIME_ROLE ( 'classification_date' ) ;
#201 = EDGE_LOOP ( 'NONE', ( #158 ) ) ;
#202 = ADVANCED_FACE ( 'NONE', ( #59, #223 ), #37, .T. ) ;
#203 = AXIS2_PLACEMENT_3D ( 'NONE', #119, #9, #267 ) ;
#204 = AXIS2_PLACEMENT_3D ( 'NONE', #128, #65, #151 ) ;
#205 = APPROVAL_STATUS ( 'not_yet_approved' ) ;
#206 = PRODUCT_DEFINITION ( 'UNKNOWN', '', #183, #63 ) ;
#207 = MECHANICAL_CONTEXT ( 'NONE', #270, 'mechanical' ) ;
#208 = EDGE_LOOP ( 'NONE', ( #230 ) ) ;
#209 = AXIS2_PLACEMENT_3D ( 'NONE', #190, #98, #262 ) ;
#210 = PERSON_AND_ORGANIZATION ( #248, #188 ) ;
#211 = EDGE_LOOP ( 'NONE', ( #284 ) ) ;
#212 = FACE_OUTER_BOUND ( 'NONE', #54, .T. ) ;
#213 = ADVANCED_FACE ( 'NONE', ( #300 ), #19, .T. ) ;
#214 = FACE_OUTER_BOUND ( 'NONE', #147, .T. ) ;
#215 = CIRCLE ( 'NONE', #260, 0.4784999999999993703 ) ;
#216 = ORIENTED_EDGE ( 'NONE', *, *, #101, .F. ) ;
#217 = DIRECTION ( 'NONE',  ( -3.491481338843133355E-15, 1.224646799147352961E-16, -1.000000000000000000 ) ) ;
#218 = DIRECTION ( 'NONE',  ( 0.0000000000000000000, 1.000000000000000000, 0.0000000000000000000 ) ) ;
#219 = CIRCLE ( 'NONE', #115, 0.4784999999999999809 ) ;
#220 = CIRCLE ( 'NONE', #85, 0.4249999999999993783 ) ;
#221 = CARTESIAN_POINT ( 'NONE',  ( -9.463679131915808972E-32, 0.3630299461620759560, -2.710505431213761701E-17 ) ) ;
#222 = CARTESIAN_POINT ( 'NONE',  ( 1.326762908760390423E-13, 1.199999999999998845, 38.00000000000000000 ) ) ;
#223 = FACE_OUTER_BOUND ( 'NONE', #211, .T. ) ;
#224 = LOCAL_TIME ( 15, 49, 23.00000000000000000, #135 ) ;
#225 = CARTESIAN_POINT ( 'NONE',  ( 1.745740669421566678E-14, 3.588175280018483708E-33, 5.000000000000000000 ) ) ;
#226 = CC_DESIGN_DATE_AND_TIME_ASSIGNMENT ( #27, #154, ( #206 ) ) ;
#227 = CALENDAR_DATE ( 2021, 29, 11 ) ;
#228 = EDGE_LOOP ( 'NONE', ( #89 ) ) ;
#229 =( LENGTH_UNIT ( ) NAMED_UNIT ( * ) SI_UNIT ( .MILLI., .METRE. ) );
#230 = ORIENTED_EDGE ( 'NONE', *, *, #155, .T. ) ;
#231 = APPROVAL_DATE_TIME ( #181, #60 ) ;
#232 = APPROVAL_STATUS ( 'not_yet_approved' ) ;
#233 = APPLICATION_PROTOCOL_DEFINITION ( 'international standard', 'config_control_design', 1994, #270 ) ;
#234 = AXIS2_PLACEMENT_3D ( 'NONE', #268, #106, #198 ) ;
#235 = CARTESIAN_POINT ( 'NONE',  ( 1.778094382859736416E-14, -6.236715546280332998E-16, 5.092664718204937380 ) ) ;
#236 = CARTESIAN_POINT ( 'NONE',  ( 1.326762908760390423E-13, 8.998558695971099120E-33, 38.00000000000000000 ) ) ;
#237 = FACE_OUTER_BOUND ( 'NONE', #94, .T. ) ;
#238 = PRODUCT ( '200034', '200034', '', ( #207 ) ) ;
#239 = CARTESIAN_POINT ( 'NONE',  ( 3.491481338843133355E-14, -1.301042606982605321E-15, 10.00000000000000000 ) ) ;
#240 = EDGE_CURVE ( 'NONE', #127, #127, #141, .T. ) ;
#241 = EDGE_LOOP ( 'NONE', ( #178 ) ) ;
#242 = FACE_OUTER_BOUND ( 'NONE', #48, .T. ) ;
#243 = DIRECTION ( 'NONE',  ( 3.491481338843133355E-15, -1.224646799147352961E-16, 1.000000000000000000 ) ) ;
#244 = LOCAL_TIME ( 15, 49, 23.00000000000000000, #133 ) ;
#245 = CARTESIAN_POINT ( 'NONE',  ( 3.491481338843133355E-14, 0.4249999999999987121, 10.00000000000000000 ) ) ;
#246 = PLANE ( 'NONE',  #29 ) ;
#247 = CARTESIAN_POINT ( 'NONE',  ( 0.0000000000000000000, 0.0000000000000000000, 0.0000000000000000000 ) ) ;
#248 = PERSON ( 'UNSPECIFIED', 'UNSPECIFIED', 'UNSPECIFIED', ('UNSPECIFIED'), ('UNSPECIFIED'), ('UNSPECIFIED') ) ;
#249 = AXIS2_PLACEMENT_3D ( 'NONE', #272, #153, #294 ) ;
#250 = APPROVAL_ROLE ( '' ) ;
#251 = DATE_AND_TIME ( #227, #104 ) ;
#252 = EDGE_LOOP ( 'NONE', ( #255 ) ) ;
#253 = AXIS2_PLACEMENT_3D ( 'NONE', #131, #293, #299 ) ;
#254 = PERSON_AND_ORGANIZATION ( #248, #188 ) ;
#255 = ORIENTED_EDGE ( 'NONE', *, *, #285, .F. ) ;
#256 = PERSON_AND_ORGANIZATION_ROLE ( 'design_owner' ) ;
#257 = APPROVAL_DATE_TIME ( #184, #289 ) ;
#258 = EDGE_LOOP ( 'NONE', ( #134 ) ) ;
#259 = CIRCLE ( 'NONE', #28, 0.4553844939755807286 ) ;
#260 = AXIS2_PLACEMENT_3D ( 'NONE', #125, #173, #58 ) ;
#261 = FACE_BOUND ( 'NONE', #201, .T. ) ;
#262 = DIRECTION ( 'NONE',  ( -4.275831445896957731E-31, -1.000000000000000000, -1.224646799147352961E-16 ) ) ;
#263 = FACE_OUTER_BOUND ( 'NONE', #35, .T. ) ;
#264 = EDGE_CURVE ( 'NONE', #196, #196, #220, .T. ) ;
#265 = ORIENTED_EDGE ( 'NONE', *, *, #240, .F. ) ;
#266 = LOCAL_TIME ( 15, 49, 23.00000000000000000, #90 ) ;
#267 = DIRECTION ( 'NONE',  ( 4.275831445896957731E-31, 1.000000000000000000, 1.224646799147352961E-16 ) ) ;
#268 = CARTESIAN_POINT ( 'NONE',  ( 5.681200619910854129E-14, -1.992696932698792137E-15, 16.27160528314111332 ) ) ;
#269 = VERTEX_POINT ( 'NONE', #102 ) ;
#270 = APPLICATION_CONTEXT ( 'configuration controlled 3d designs of mechanical parts and assemblies' ) ;
#271 = VERTEX_POINT ( 'NONE', #40 ) ;
#272 = CARTESIAN_POINT ( 'NONE',  ( 3.491481338843133355E-14, -1.224646799147353059E-15, 10.00000000000000000 ) ) ;
#273 = PRODUCT_RELATED_PRODUCT_CATEGORY ( 'detail', '', ( #238 ) ) ;
#274 = PERSON_AND_ORGANIZATION ( #248, #188 ) ;
#275 = CONICAL_SURFACE ( 'NONE', #234, 1.499999999999997335, 0.1745329251994260644 ) ;
#276 = ADVANCED_BREP_SHAPE_REPRESENTATION ( '200034', ( #1, #103, #297 ), #71 ) ;
#277 = APPROVAL_STATUS ( 'not_yet_approved' ) ;
#278 = EDGE_LOOP ( 'NONE', ( #180 ) ) ;
#279 = ORIENTED_EDGE ( 'NONE', *, *, #67, .T. ) ;
#280 = CALENDAR_DATE ( 2021, 29, 11 ) ;
#281 = CLOSED_SHELL ( 'NONE', ( #139, #144, #202, #213 ) ) ;
#282 = SECURITY_CLASSIFICATION_LEVEL ( 'unclassified' ) ;
#283 = SHAPE_DEFINITION_REPRESENTATION ( #36, #276 ) ;
#284 = ORIENTED_EDGE ( 'NONE', *, *, #72, .T. ) ;
#285 = EDGE_CURVE ( 'NONE', #80, #80, #215, .T. ) ;
#286 = DIRECTION ( 'NONE',  ( -3.491481338843133355E-15, 1.224646799147352961E-16, -1.000000000000000000 ) ) ;
#287 = ORIENTED_EDGE ( 'NONE', *, *, #163, .T. ) ;
#288 = APPLICATION_CONTEXT ( 'configuration controlled 3d designs of mechanical parts and assemblies' ) ;
#289 = APPROVAL ( #277, 'UNSPECIFIED' ) ;
#290 = FACE_OUTER_BOUND ( 'NONE', #97, .T. ) ;
#291 = EDGE_LOOP ( 'NONE', ( #302 ) ) ;
#292 = PLANE ( 'NONE',  #42 ) ;
#293 = DIRECTION ( 'NONE',  ( -3.491481338843133355E-15, 1.224646799147352961E-16, -1.000000000000000000 ) ) ;
#294 = DIRECTION ( 'NONE',  ( 0.0000000000000000000, 1.000000000000000000, 0.0000000000000000000 ) ) ;
#295 = LOCAL_TIME ( 15, 49, 23.00000000000000000, #179 ) ;
#296 = CARTESIAN_POINT ( 'NONE',  ( 1.778094382859736416E-14, 0.4249999999999987121, 5.092664718204937380 ) ) ;
#297 = AXIS2_PLACEMENT_3D ( 'NONE', #156, #22, #132 ) ;
#298 = CC_DESIGN_PERSON_AND_ORGANIZATION_ASSIGNMENT ( #88, #138, ( #183 ) ) ;
#299 = DIRECTION ( 'NONE',  ( 0.0000000000000000000, 1.000000000000000000, 0.0000000000000000000 ) ) ;
#300 = FACE_OUTER_BOUND ( 'NONE', #241, .T. ) ;
#301 = PERSON_AND_ORGANIZATION ( #248, #188 ) ;
#302 = ORIENTED_EDGE ( 'NONE', *, *, #264, .T. ) ;
#303 = AXIS2_PLACEMENT_3D ( 'NONE', #235, #217, #32 ) ;
ENDSEC;
END-ISO-10303-21;
