ISO-10303-21;
HEADER;
FILE_DESCRIPTION (( 'STEP AP203' ),
    '1' );
FILE_NAME ('200033.step',
    '2021-11-29T14:49:23',
    ( '' ),
    ( '' ),
    'SwSTEP 2.0',
    'SolidWorks 2019',
    '' );
FILE_SCHEMA (( 'CONFIG_CONTROL_DESIGN' ));
ENDSEC;

DATA;
#1 = AXIS2_PLACEMENT_3D ( 'NONE', #125, #108, #291 ) ;
#2 = DIRECTION ( 'NONE',  ( -3.491481338843133355E-15, 1.224646799147352961E-16, -1.000000000000000000 ) ) ;
#3 = AXIS2_PLACEMENT_3D ( 'NONE', #252, #137, #142 ) ;
#4 = CC_DESIGN_PERSON_AND_ORGANIZATION_ASSIGNMENT ( #122, #42, ( #159 ) ) ;
#5 = CARTESIAN_POINT ( 'NONE',  ( 1.326762908760390423E-13, 8.998558695971099120E-33, 38.00000000000000000 ) ) ;
#6 = CLOSED_SHELL ( 'NONE', ( #251, #117, #184, #32 ) ) ;
#7 = APPROVAL_ROLE ( '' ) ;
#8 = CARTESIAN_POINT ( 'NONE',  ( 3.612739213212770373E-14, -1.267178336138866969E-15, 10.34729635533384950 ) ) ;
#9 = APPROVAL_STATUS ( 'not_yet_approved' ) ;
#10 = EDGE_LOOP ( 'NONE', ( #134 ) ) ;
#11 = CARTESIAN_POINT ( 'NONE',  ( 2.138211768073756517E-47, 0.3830299461620758628, 0.0000000000000000000 ) ) ;
#12 = ORIENTED_EDGE ( 'NONE', *, *, #243, .T. ) ;
#13 = ADVANCED_FACE ( 'NONE', ( #223, #241 ), #201, .T. ) ;
#14 = FACE_OUTER_BOUND ( 'NONE', #269, .T. ) ;
#15 = CARTESIAN_POINT ( 'NONE',  ( 0.0000000000000000000, 0.0000000000000000000, 0.0000000000000000000 ) ) ;
#16 = EDGE_LOOP ( 'NONE', ( #72 ) ) ;
#17 = DIRECTION ( 'NONE',  ( -3.491481338843133355E-15, 1.224646799147352961E-16, -1.000000000000000000 ) ) ;
#18 = APPROVAL_STATUS ( 'not_yet_approved' ) ;
#19 = CARTESIAN_POINT ( 'NONE',  ( 1.778094382859736416E-14, -6.236715546280332998E-16, 5.092664718204937380 ) ) ;
#20 = DIRECTION ( 'NONE',  ( 4.275831445896956855E-31, 1.000000000000000000, 1.224646799147352714E-16 ) ) ;
#21 = PLANE ( 'NONE',  #263 ) ;
#22 = AXIS2_PLACEMENT_3D ( 'NONE', #164, #63, #162 ) ;
#23 = CARTESIAN_POINT ( 'NONE',  ( 1.778094382859736416E-14, -6.236715546280332998E-16, 5.092664718204937380 ) ) ;
#24 = APPROVAL_DATE_TIME ( #238, #209 ) ;
#25 = VERTEX_POINT ( 'NONE', #11 ) ;
#26 = PERSON_AND_ORGANIZATION_ROLE ( 'design_owner' ) ;
#27 = AXIS2_PLACEMENT_3D ( 'NONE', #169, #2, #96 ) ;
#28 = DIRECTION ( 'NONE',  ( -3.491481338843133355E-15, 1.224646799147352961E-16, -1.000000000000000000 ) ) ;
#29 = APPLICATION_PROTOCOL_DEFINITION ( 'international standard', 'config_control_design', 1994, #298 ) ;
#30 = DIRECTION ( 'NONE',  ( 0.0000000000000000000, 1.000000000000000000, 0.0000000000000000000 ) ) ;
#31 = DATE_TIME_ROLE ( 'creation_date' ) ;
#32 = ADVANCED_FACE ( 'NONE', ( #129 ), #105, .T. ) ;
#33 = DIRECTION ( 'NONE',  ( 0.0000000000000000000, 1.000000000000000000, 0.0000000000000000000 ) ) ;
#34 = DIRECTION ( 'NONE',  ( 3.491481338843133355E-15, -1.224646799147352961E-16, 1.000000000000000000 ) ) ;
#35 = PERSON_AND_ORGANIZATION_ROLE ( 'design_supplier' ) ;
#36 = CIRCLE ( 'NONE', #183, 1.499999999999997335 ) ;
#37 = DIRECTION ( 'NONE',  ( 4.275831445896957731E-31, 1.000000000000000000, 1.224646799147352961E-16 ) ) ;
#38 = EDGE_LOOP ( 'NONE', ( #85 ) ) ;
#39 = DIRECTION ( 'NONE',  ( -3.491481338843133355E-15, 1.224646799147352961E-16, -1.000000000000000000 ) ) ;
#40 = DIRECTION ( 'NONE',  ( 3.491481338843133355E-15, -1.224646799147352961E-16, 1.000000000000000000 ) ) ;
#41 = CC_DESIGN_APPROVAL ( #209, ( #159 ) ) ;
#42 = PERSON_AND_ORGANIZATION_ROLE ( 'creator' ) ;
#43 = DIRECTION ( 'NONE',  ( 3.863450239492955424E-31, 1.000000000000000000, 1.087464566184057973E-16 ) ) ;
#44 = DIRECTION ( 'NONE',  ( -3.491481338843133355E-15, 1.224646799147352961E-16, -1.000000000000000000 ) ) ;
#45 = EDGE_CURVE ( 'NONE', #228, #228, #234, .T. ) ;
#46 = LOCAL_TIME ( 15, 49, 23.00000000000000000, #55 ) ;
#47 = EDGE_CURVE ( 'NONE', #272, #272, #71, .T. ) ;
#48 = FACE_OUTER_BOUND ( 'NONE', #293, .T. ) ;
#49 = COORDINATED_UNIVERSAL_TIME_OFFSET ( 1, 0, .AHEAD. ) ;
#50 = CARTESIAN_POINT ( 'NONE',  ( 1.326762908760390423E-13, 1.199999999999998845, 38.00000000000000000 ) ) ;
#51 = MECHANICAL_CONTEXT ( 'NONE', #212, 'mechanical' ) ;
#52 = ORIENTED_EDGE ( 'NONE', *, *, #56, .T. ) ;
#53 = AXIS2_PLACEMENT_3D ( 'NONE', #167, #181, #257 ) ;
#54 = ORIENTED_EDGE ( 'NONE', *, *, #102, .T. ) ;
#55 = COORDINATED_UNIVERSAL_TIME_OFFSET ( 1, 0, .AHEAD. ) ;
#56 = EDGE_CURVE ( 'NONE', #194, #194, #114, .T. ) ;
#57 = EDGE_LOOP ( 'NONE', ( #161 ) ) ;
#58 = EDGE_LOOP ( 'NONE', ( #173 ) ) ;
#59 = DATE_AND_TIME ( #133, #210 ) ;
#60 = CC_DESIGN_APPROVAL ( #196, ( #75 ) ) ;
#61 = ORIENTED_EDGE ( 'NONE', *, *, #67, .T. ) ;
#62 = AXIS2_PLACEMENT_3D ( 'NONE', #289, #34, #156 ) ;
#63 = DIRECTION ( 'NONE',  ( -3.491481338843133355E-15, 1.224646799147352961E-16, -1.000000000000000000 ) ) ;
#64 = COORDINATED_UNIVERSAL_TIME_OFFSET ( 1, 0, .AHEAD. ) ;
#65 = DIRECTION ( 'NONE',  ( 3.491481338843133355E-15, -1.224646799147352961E-16, 1.000000000000000000 ) ) ;
#66 = AXIS2_PLACEMENT_3D ( 'NONE', #236, #17, #113 ) ;
#67 = EDGE_CURVE ( 'NONE', #268, #268, #36, .T. ) ;
#68 = CARTESIAN_POINT ( 'NONE',  ( 0.0000000000000000000, 0.0000000000000000000, 0.0000000000000000000 ) ) ;
#69 = ADVANCED_BREP_SHAPE_REPRESENTATION ( '200033', ( #120, #130, #267 ), #277 ) ;
#70 = CONICAL_SURFACE ( 'NONE', #53, 1.200000000000003286, 0.7853981633974453924 ) ;
#71 = CIRCLE ( 'NONE', #100, 0.4753844939755803578 ) ;
#72 = ORIENTED_EDGE ( 'NONE', *, *, #45, .F. ) ;
#73 = FACE_BOUND ( 'NONE', #195, .T. ) ;
#74 = VERTEX_POINT ( 'NONE', #264 ) ;
#75 = SECURITY_CLASSIFICATION ( '', '', #106 ) ;
#76 = VERTEX_POINT ( 'NONE', #217 ) ;
#77 = ADVANCED_FACE ( 'NONE', ( #14, #216 ), #109, .T. ) ;
#78 = CIRCLE ( 'NONE', #283, 1.200000000000003286 ) ;
#79 = PERSON_AND_ORGANIZATION ( #154, #237 ) ;
#80 = CALENDAR_DATE ( 2021, 29, 11 ) ;
#81 = ORIENTED_EDGE ( 'NONE', *, *, #243, .F. ) ;
#82 = DIRECTION ( 'NONE',  ( 0.0000000000000000000, 0.0000000000000000000, 1.000000000000000000 ) ) ;
#83 = AXIS2_PLACEMENT_3D ( 'NONE', #68, #91, #20 ) ;
#84 = DIRECTION ( 'NONE',  ( -3.491481338843133355E-15, 1.224646799147352961E-16, -1.000000000000000000 ) ) ;
#85 = ORIENTED_EDGE ( 'NONE', *, *, #124, .F. ) ;
#86 = DIRECTION ( 'NONE',  ( -3.491481338843133355E-15, 1.224646799147352961E-16, -1.000000000000000000 ) ) ;
#87 = ORIENTED_EDGE ( 'NONE', *, *, #292, .F. ) ;
#88 = EDGE_LOOP ( 'NONE', ( #150 ) ) ;
#89 = AXIS2_PLACEMENT_3D ( 'NONE', #15, #28, #37 ) ;
#90 = CYLINDRICAL_SURFACE ( 'NONE', #83, 0.4984999999999997211 ) ;
#91 = DIRECTION ( 'NONE',  ( -3.491481338843133355E-15, 1.224646799147352961E-16, -1.000000000000000000 ) ) ;
#92 = APPROVAL ( #9, 'UNSPECIFIED' ) ;
#93 = DIRECTION ( 'NONE',  ( -3.863450239492955424E-31, -1.000000000000000000, -1.087464566184057973E-16 ) ) ;
#94 = CIRCLE ( 'NONE', #207, 0.4984999999999993880 ) ;
#95 = AXIS2_PLACEMENT_3D ( 'NONE', #23, #121, #97 ) ;
#96 = DIRECTION ( 'NONE',  ( 4.275831445896957731E-31, 1.000000000000000000, 1.224646799147352961E-16 ) ) ;
#97 = DIRECTION ( 'NONE',  ( 0.0000000000000000000, 1.000000000000000000, 0.0000000000000000000 ) ) ;
#98 = CARTESIAN_POINT ( 'NONE',  ( 1.778094382859736416E-14, 0.4449999999999987854, 5.092664718204937380 ) ) ;
#99 = CC_DESIGN_SECURITY_CLASSIFICATION ( #75, ( #159 ) ) ;
#100 = AXIS2_PLACEMENT_3D ( 'NONE', #8, #246, #33 ) ;
#101 =( NAMED_UNIT ( * ) SI_UNIT ( $, .STERADIAN. ) SOLID_ANGLE_UNIT ( ) );
#102 = EDGE_CURVE ( 'NONE', #214, #214, #78, .T. ) ;
#103 = DIRECTION ( 'NONE',  ( 0.0000000000000000000, 1.000000000000000000, 0.0000000000000000000 ) ) ;
#104 = PERSON_AND_ORGANIZATION ( #154, #237 ) ;
#105 = PLANE ( 'NONE',  #62 ) ;
#106 = SECURITY_CLASSIFICATION_LEVEL ( 'unclassified' ) ;
#107 = APPROVAL_PERSON_ORGANIZATION ( #123, #92, #7 ) ;
#108 = DIRECTION ( 'NONE',  ( -3.491481338843133355E-15, 1.224646799147352961E-16, -1.000000000000000000 ) ) ;
#109 = CYLINDRICAL_SURFACE ( 'NONE', #249, 1.500000000000000444 ) ;
#110 = UNCERTAINTY_MEASURE_WITH_UNIT (LENGTH_MEASURE( 1.000000000000000082E-05 ), #288, 'distance_accuracy_value', 'NONE');
#111 = ORIENTED_EDGE ( 'NONE', *, *, #45, .T. ) ;
#112 = CIRCLE ( 'NONE', #22, 0.4985000000000000542 ) ;
#113 = DIRECTION ( 'NONE',  ( 0.0000000000000000000, 1.000000000000000000, 0.0000000000000000000 ) ) ;
#114 = CIRCLE ( 'NONE', #1, 1.500000000000003331 ) ;
#115 = DATE_AND_TIME ( #163, #248 ) ;
#116 = PLANE ( 'NONE',  #151 ) ;
#117 = ADVANCED_FACE ( 'NONE', ( #170, #193 ), #233, .T. ) ;
#118 = FACE_BOUND ( 'NONE', #259, .T. ) ;
#119 = FACE_OUTER_BOUND ( 'NONE', #153, .T. ) ;
#120 = MANIFOLD_SOLID_BREP ( 'Corps-Déplacer/Copier1[1]', #191 ) ;
#121 = DIRECTION ( 'NONE',  ( -3.491481338843133355E-15, 1.224646799147352961E-16, -1.000000000000000000 ) ) ;
#122 = PERSON_AND_ORGANIZATION ( #154, #237 ) ;
#123 = PERSON_AND_ORGANIZATION ( #154, #237 ) ;
#124 = EDGE_CURVE ( 'NONE', #147, #147, #112, .T. ) ;
#125 = CARTESIAN_POINT ( 'NONE',  ( 1.316288464743861212E-13, -4.616918432785520292E-15, 37.69999999999999574 ) ) ;
#126 = APPROVAL_DATE_TIME ( #188, #92 ) ;
#127 = EDGE_LOOP ( 'NONE', ( #81 ) ) ;
#128 = PERSON_AND_ORGANIZATION ( #154, #237 ) ;
#129 = FACE_OUTER_BOUND ( 'NONE', #16, .T. ) ;
#130 = MANIFOLD_SOLID_BREP ( 'Corps-Déplacer/Copier1[2]', #6 ) ;
#131 = AXIS2_PLACEMENT_3D ( 'NONE', #143, #40, #225 ) ;
#132 = DIRECTION ( 'NONE',  ( 0.0000000000000000000, 1.000000000000000000, 0.0000000000000000000 ) ) ;
#133 = CALENDAR_DATE ( 2021, 29, 11 ) ;
#134 = ORIENTED_EDGE ( 'NONE', *, *, #239, .F. ) ;
#135 = DATE_TIME_ROLE ( 'classification_date' ) ;
#136 = ORIENTED_EDGE ( 'NONE', *, *, #67, .F. ) ;
#137 = DIRECTION ( 'NONE',  ( -3.491481338843133355E-15, 1.224646799147352961E-16, -1.000000000000000000 ) ) ;
#138 = CC_DESIGN_PERSON_AND_ORGANIZATION_ASSIGNMENT ( #229, #35, ( #159 ) ) ;
#139 = APPROVAL_PERSON_ORGANIZATION ( #128, #209, #261 ) ;
#140 = DIRECTION ( 'NONE',  ( 3.491481338843133355E-15, -1.224646799147352961E-16, 1.000000000000000000 ) ) ;
#141 = FACE_OUTER_BOUND ( 'NONE', #220, .T. ) ;
#142 = DIRECTION ( 'NONE',  ( 4.275831445896958607E-31, 1.000000000000000000, 1.224646799147352961E-16 ) ) ;
#143 = CARTESIAN_POINT ( 'NONE',  ( 5.641598270629821658E-14, -1.978806298443876982E-15, 16.15817964674875640 ) ) ;
#144 = ADVANCED_FACE ( 'NONE', ( #205 ), #211, .F. ) ;
#145 = AXIS2_PLACEMENT_3D ( 'NONE', #19, #39, #256 ) ;
#146 = CALENDAR_DATE ( 2021, 29, 11 ) ;
#147 = VERTEX_POINT ( 'NONE', #213 ) ;
#148 = ADVANCED_FACE ( 'NONE', ( #141, #119 ), #197, .F. ) ;
#149 = VERTEX_POINT ( 'NONE', #98 ) ;
#150 = ORIENTED_EDGE ( 'NONE', *, *, #239, .T. ) ;
#151 = AXIS2_PLACEMENT_3D ( 'NONE', #5, #260, #253 ) ;
#152 = APPLICATION_PROTOCOL_DEFINITION ( 'international standard', 'config_control_design', 1994, #212 ) ;
#153 = EDGE_LOOP ( 'NONE', ( #286 ) ) ;
#154 = PERSON ( 'UNSPECIFIED', 'UNSPECIFIED', 'UNSPECIFIED', ('UNSPECIFIED'), ('UNSPECIFIED'), ('UNSPECIFIED') ) ;
#155 = CALENDAR_DATE ( 2021, 29, 11 ) ;
#156 = DIRECTION ( 'NONE',  ( -4.275831445896957731E-31, -1.000000000000000000, -1.224646799147352961E-16 ) ) ;
#157 = SHAPE_DEFINITION_REPRESENTATION ( #287, #69 ) ;
#158 = ORIENTED_EDGE ( 'NONE', *, *, #280, .F. ) ;
#159 = PRODUCT_DEFINITION_FORMATION_WITH_SPECIFIED_SOURCE ( 'ANY', '', #254, .NOT_KNOWN. ) ;
#160 = ORIENTED_EDGE ( 'NONE', *, *, #56, .F. ) ;
#161 = ORIENTED_EDGE ( 'NONE', *, *, #102, .F. ) ;
#162 = DIRECTION ( 'NONE',  ( 0.0000000000000000000, 1.000000000000000000, 0.0000000000000000000 ) ) ;
#163 = CALENDAR_DATE ( 2021, 29, 11 ) ;
#164 = CARTESIAN_POINT ( 'NONE',  ( 1.745740669421566678E-14, -6.123233995736765296E-16, 5.000000000000000000 ) ) ;
#165 = COORDINATED_UNIVERSAL_TIME_OFFSET ( 1, 0, .AHEAD. ) ;
#166 = AXIS2_PLACEMENT_3D ( 'NONE', #230, #302, #93 ) ;
#167 = CARTESIAN_POINT ( 'NONE',  ( 1.326762908760390423E-13, -4.653657836759941152E-15, 38.00000000000000000 ) ) ;
#168 = FACE_OUTER_BOUND ( 'NONE', #57, .T. ) ;
#169 = CARTESIAN_POINT ( 'NONE',  ( 3.491481338843133355E-14, -1.301042606982605321E-15, 10.00000000000000000 ) ) ;
#170 = FACE_BOUND ( 'NONE', #10, .T. ) ;
#171 = PERSON_AND_ORGANIZATION_ROLE ( 'creator' ) ;
#172 = ORIENTED_EDGE ( 'NONE', *, *, #280, .T. ) ;
#173 = ORIENTED_EDGE ( 'NONE', *, *, #124, .T. ) ;
#174 = ORIENTED_EDGE ( 'NONE', *, *, #47, .F. ) ;
#175 = DESIGN_CONTEXT ( 'detailed design', #298, 'design' ) ;
#176 = CONICAL_SURFACE ( 'NONE', #145, 0.4449999999999994515, 0.5235987755982918213 ) ;
#177 = EDGE_LOOP ( 'NONE', ( #54 ) ) ;
#178 = ADVANCED_FACE ( 'NONE', ( #182, #118 ), #176, .T. ) ;
#179 = PERSON_AND_ORGANIZATION ( #154, #237 ) ;
#180 = FACE_OUTER_BOUND ( 'NONE', #224, .T. ) ;
#181 = DIRECTION ( 'NONE',  ( -3.491481338843133355E-15, 1.224646799147352961E-16, -1.000000000000000000 ) ) ;
#182 = FACE_OUTER_BOUND ( 'NONE', #38, .T. ) ;
#183 = AXIS2_PLACEMENT_3D ( 'NONE', #266, #222, #30 ) ;
#184 = ADVANCED_FACE ( 'NONE', ( #278, #180 ), #90, .T. ) ;
#185 = CC_DESIGN_DATE_AND_TIME_ASSIGNMENT ( #245, #31, ( #231 ) ) ;
#186 = FACE_OUTER_BOUND ( 'NONE', #270, .T. ) ;
#187 = APPROVAL_STATUS ( 'not_yet_approved' ) ;
#188 = DATE_AND_TIME ( #80, #282 ) ;
#189 = APPROVAL_PERSON_ORGANIZATION ( #273, #196, #290 ) ;
#190 = DIRECTION ( 'NONE',  ( 1.000000000000000000, 0.0000000000000000000, 0.0000000000000000000 ) ) ;
#191 = CLOSED_SHELL ( 'NONE', ( #144, #178, #13, #148, #265, #77, #235, #192 ) ) ;
#192 = ADVANCED_FACE ( 'NONE', ( #168 ), #116, .F. ) ;
#193 = FACE_OUTER_BOUND ( 'NONE', #250, .T. ) ;
#194 = VERTEX_POINT ( 'NONE', #240 ) ;
#195 = EDGE_LOOP ( 'NONE', ( #174 ) ) ;
#196 = APPROVAL ( #18, 'UNSPECIFIED' ) ;
#197 = TOROIDAL_SURFACE ( 'NONE', #27, 2.445000000000000284, 2.000000000000000888 ) ;
#198 = EDGE_LOOP ( 'NONE', ( #52 ) ) ;
#199 = APPROVAL_DATE_TIME ( #115, #196 ) ;
#200 = CARTESIAN_POINT ( 'NONE',  ( 1.326762908760390423E-13, -4.653657836759941152E-15, 38.00000000000000000 ) ) ;
#201 = CYLINDRICAL_SURFACE ( 'NONE', #89, 0.4449999999999997846 ) ;
#202 = CIRCLE ( 'NONE', #66, 0.4450000000000000067 ) ;
#203 = CARTESIAN_POINT ( 'NONE',  ( 1.745740669421566678E-14, 0.4984999999999993880, 5.000000000000000000 ) ) ;
#204 = FACE_BOUND ( 'NONE', #177, .T. ) ;
#205 = FACE_OUTER_BOUND ( 'NONE', #58, .T. ) ;
#206 = PRODUCT_RELATED_PRODUCT_CATEGORY ( 'detail', '', ( #254 ) ) ;
#207 = AXIS2_PLACEMENT_3D ( 'NONE', #276, #44, #43 ) ;
#208 = CARTESIAN_POINT ( 'NONE',  ( 1.745740669421566678E-14, 3.738151258284669195E-33, 5.000000000000000000 ) ) ;
#209 = APPROVAL ( #187, 'UNSPECIFIED' ) ;
#210 = LOCAL_TIME ( 15, 49, 23.00000000000000000, #165 ) ;
#211 = PLANE ( 'NONE',  #227 ) ;
#212 = APPLICATION_CONTEXT ( 'configuration controlled 3d designs of mechanical parts and assemblies' ) ;
#213 = CARTESIAN_POINT ( 'NONE',  ( 1.745740669421566678E-14, 0.4984999999999993880, 5.000000000000000000 ) ) ;
#214 = VERTEX_POINT ( 'NONE', #50 ) ;
#215 = LOCAL_TIME ( 15, 49, 23.00000000000000000, #49 ) ;
#216 = FACE_OUTER_BOUND ( 'NONE', #198, .T. ) ;
#217 = CARTESIAN_POINT ( 'NONE',  ( 3.491481338843133355E-14, 0.4449999999999987854, 10.00000000000000000 ) ) ;
#218 = ORIENTED_EDGE ( 'NONE', *, *, #292, .T. ) ;
#219 = CARTESIAN_POINT ( 'NONE',  ( 0.0000000000000000000, 0.0000000000000000000, 0.0000000000000000000 ) ) ;
#220 = EDGE_LOOP ( 'NONE', ( #158 ) ) ;
#221 = CIRCLE ( 'NONE', #3, 0.3830299461620758628 ) ;
#222 = DIRECTION ( 'NONE',  ( -3.491481338843133355E-15, 1.224646799147352961E-16, -1.000000000000000000 ) ) ;
#223 = FACE_OUTER_BOUND ( 'NONE', #247, .T. ) ;
#224 = EDGE_LOOP ( 'NONE', ( #111 ) ) ;
#225 = DIRECTION ( 'NONE',  ( 0.0000000000000000000, -1.000000000000000000, 0.0000000000000000000 ) ) ;
#226 = PERSON_AND_ORGANIZATION_ROLE ( 'classification_officer' ) ;
#227 = AXIS2_PLACEMENT_3D ( 'NONE', #208, #65, #301 ) ;
#228 = VERTEX_POINT ( 'NONE', #203 ) ;
#229 = PERSON_AND_ORGANIZATION ( #154, #237 ) ;
#230 = CARTESIAN_POINT ( 'NONE',  ( 6.982962677686265724E-16, -2.449293598294705305E-17, 0.1999999999999999556 ) ) ;
#231 = PRODUCT_DEFINITION ( 'UNKNOWN', '', #159, #175 ) ;
#232 = FACE_OUTER_BOUND ( 'NONE', #88, .T. ) ;
#233 = CONICAL_SURFACE ( 'NONE', #166, 0.4984999999999993880, 0.5235987755982925984 ) ;
#234 = CIRCLE ( 'NONE', #297, 0.4985000000000000542 ) ;
#235 = ADVANCED_FACE ( 'NONE', ( #186, #204 ), #70, .T. ) ;
#236 = CARTESIAN_POINT ( 'NONE',  ( 3.491481338843133355E-14, -1.224646799147353059E-15, 10.00000000000000000 ) ) ;
#237 = ORGANIZATION ( 'UNSPECIFIED', 'UNSPECIFIED', '' ) ;
#238 = DATE_AND_TIME ( #146, #215 ) ;
#239 = EDGE_CURVE ( 'NONE', #25, #25, #221, .T. ) ;
#240 = CARTESIAN_POINT ( 'NONE',  ( 1.316288464743861212E-13, 1.499999999999998668, 37.69999999999999574 ) ) ;
#241 = FACE_OUTER_BOUND ( 'NONE', #258, .T. ) ;
#242 = CC_DESIGN_APPROVAL ( #92, ( #231 ) ) ;
#243 = EDGE_CURVE ( 'NONE', #74, #74, #94, .T. ) ;
#244 = CARTESIAN_POINT ( 'NONE',  ( 1.745740669421566678E-14, -6.123233995736765296E-16, 5.000000000000000000 ) ) ;
#245 = DATE_AND_TIME ( #155, #46 ) ;
#246 = DIRECTION ( 'NONE',  ( -3.491481338843133355E-15, 1.224646799147352961E-16, -1.000000000000000000 ) ) ;
#247 = EDGE_LOOP ( 'NONE', ( #87 ) ) ;
#248 = LOCAL_TIME ( 15, 49, 23.00000000000000000, #64 ) ;
#249 = AXIS2_PLACEMENT_3D ( 'NONE', #271, #86, #295 ) ;
#250 = EDGE_LOOP ( 'NONE', ( #12 ) ) ;
#251 = ADVANCED_FACE ( 'NONE', ( #232 ), #21, .F. ) ;
#252 = CARTESIAN_POINT ( 'NONE',  ( -1.637771488520022667E-31, 5.744529088090176776E-33, -4.690763975449691561E-17 ) ) ;
#253 = DIRECTION ( 'NONE',  ( 4.275831445896957731E-31, 1.000000000000000000, 1.224646799147352961E-16 ) ) ;
#254 = PRODUCT ( '200033', '200033', '', ( #51 ) ) ;
#255 = CC_DESIGN_PERSON_AND_ORGANIZATION_ASSIGNMENT ( #179, #226, ( #75 ) ) ;
#256 = DIRECTION ( 'NONE',  ( 0.0000000000000000000, 1.000000000000000000, 0.0000000000000000000 ) ) ;
#257 = DIRECTION ( 'NONE',  ( 0.0000000000000000000, 1.000000000000000000, 0.0000000000000000000 ) ) ;
#258 = EDGE_LOOP ( 'NONE', ( #172 ) ) ;
#259 = EDGE_LOOP ( 'NONE', ( #218 ) ) ;
#260 = DIRECTION ( 'NONE',  ( -3.491481338843133355E-15, 1.224646799147352961E-16, -1.000000000000000000 ) ) ;
#261 = APPROVAL_ROLE ( '' ) ;
#262 = CC_DESIGN_PERSON_AND_ORGANIZATION_ASSIGNMENT ( #79, #26, ( #254 ) ) ;
#263 = AXIS2_PLACEMENT_3D ( 'NONE', #279, #140, #274 ) ;
#264 = CARTESIAN_POINT ( 'NONE',  ( 6.982962677686267697E-16, 0.4984999999999993880, 0.2000000000000000111 ) ) ;
#265 = ADVANCED_FACE ( 'NONE', ( #73, #48 ), #296, .T. ) ;
#266 = CARTESIAN_POINT ( 'NONE',  ( 5.641598270629821658E-14, -1.978806298443876982E-15, 16.15817964674875640 ) ) ;
#267 = AXIS2_PLACEMENT_3D ( 'NONE', #219, #82, #190 ) ;
#268 = VERTEX_POINT ( 'NONE', #281 ) ;
#269 = EDGE_LOOP ( 'NONE', ( #136 ) ) ;
#270 = EDGE_LOOP ( 'NONE', ( #160 ) ) ;
#271 = CARTESIAN_POINT ( 'NONE',  ( 0.0000000000000000000, 0.0000000000000000000, 0.0000000000000000000 ) ) ;
#272 = VERTEX_POINT ( 'NONE', #299 ) ;
#273 = PERSON_AND_ORGANIZATION ( #154, #237 ) ;
#274 = DIRECTION ( 'NONE',  ( -4.275831445896957731E-31, -1.000000000000000000, -1.224646799147352961E-16 ) ) ;
#275 = CC_DESIGN_DATE_AND_TIME_ASSIGNMENT ( #59, #135, ( #75 ) ) ;
#276 = CARTESIAN_POINT ( 'NONE',  ( 6.982962677686265724E-16, -2.449293598294705305E-17, 0.1999999999999999556 ) ) ;
#277 =( GEOMETRIC_REPRESENTATION_CONTEXT ( 3 ) GLOBAL_UNCERTAINTY_ASSIGNED_CONTEXT ( ( #110 ) ) GLOBAL_UNIT_ASSIGNED_CONTEXT ( ( #288, #284, #101 ) ) REPRESENTATION_CONTEXT ( 'NONE', 'WORKASPACE' ) );
#278 = FACE_OUTER_BOUND ( 'NONE', #127, .T. ) ;
#279 = CARTESIAN_POINT ( 'NONE',  ( -8.188857442600113335E-32, 2.872264544045088388E-33, -2.345381987724845780E-17 ) ) ;
#280 = EDGE_CURVE ( 'NONE', #76, #76, #202, .T. ) ;
#281 = CARTESIAN_POINT ( 'NONE',  ( 5.641598270629821658E-14, 1.499999999999995559, 16.15817964674875640 ) ) ;
#282 = LOCAL_TIME ( 15, 49, 23.00000000000000000, #285 ) ;
#283 = AXIS2_PLACEMENT_3D ( 'NONE', #200, #294, #103 ) ;
#284 =( NAMED_UNIT ( * ) PLANE_ANGLE_UNIT ( ) SI_UNIT ( $, .RADIAN. ) );
#285 = COORDINATED_UNIVERSAL_TIME_OFFSET ( 1, 0, .AHEAD. ) ;
#286 = ORIENTED_EDGE ( 'NONE', *, *, #47, .T. ) ;
#287 = PRODUCT_DEFINITION_SHAPE ( 'NONE', 'NONE',  #231 ) ;
#288 =( LENGTH_UNIT ( ) NAMED_UNIT ( * ) SI_UNIT ( .MILLI., .METRE. ) );
#289 = CARTESIAN_POINT ( 'NONE',  ( 1.745740669421566678E-14, 3.738151258284669195E-33, 5.000000000000000000 ) ) ;
#290 = APPROVAL_ROLE ( '' ) ;
#291 = DIRECTION ( 'NONE',  ( 0.0000000000000000000, 1.000000000000000000, 0.0000000000000000000 ) ) ;
#292 = EDGE_CURVE ( 'NONE', #149, #149, #303, .T. ) ;
#293 = EDGE_LOOP ( 'NONE', ( #61 ) ) ;
#294 = DIRECTION ( 'NONE',  ( -3.491481338843133355E-15, 1.224646799147352961E-16, -1.000000000000000000 ) ) ;
#295 = DIRECTION ( 'NONE',  ( 4.275831445896957731E-31, 1.000000000000000000, 1.224646799147353207E-16 ) ) ;
#296 = CONICAL_SURFACE ( 'NONE', #131, 1.499999999999997335, 0.1745329251994261477 ) ;
#297 = AXIS2_PLACEMENT_3D ( 'NONE', #244, #84, #132 ) ;
#298 = APPLICATION_CONTEXT ( 'configuration controlled 3d designs of mechanical parts and assemblies' ) ;
#299 = CARTESIAN_POINT ( 'NONE',  ( 3.612739213212770373E-14, 0.4753844939755791366, 10.34729635533384950 ) ) ;
#300 = CC_DESIGN_PERSON_AND_ORGANIZATION_ASSIGNMENT ( #104, #171, ( #231 ) ) ;
#301 = DIRECTION ( 'NONE',  ( -4.275831445896957731E-31, -1.000000000000000000, -1.224646799147352961E-16 ) ) ;
#302 = DIRECTION ( 'NONE',  ( 3.491481338843133355E-15, -1.224646799147352961E-16, 1.000000000000000000 ) ) ;
#303 = CIRCLE ( 'NONE', #95, 0.4449999999999994515 ) ;
ENDSEC;
END-ISO-10303-21;
