ISO-10303-21;
HEADER;
FILE_DESCRIPTION (( 'STEP AP203' ),
    '1' );
FILE_NAME ('200032.step',
    '2021-11-29T14:49:22',
    ( '' ),
    ( '' ),
    'SwSTEP 2.0',
    'SolidWorks 2019',
    '' );
FILE_SCHEMA (( 'CONFIG_CONTROL_DESIGN' ));
ENDSEC;

DATA;
#1 = DATE_AND_TIME ( #167, #49 ) ;
#2 = DIRECTION ( 'NONE',  ( -3.491481338843133355E-15, 1.224646799147352961E-16, -1.000000000000000000 ) ) ;
#3 = DIRECTION ( 'NONE',  ( -3.491481338843133355E-15, 1.224646799147352961E-16, -1.000000000000000000 ) ) ;
#4 = CARTESIAN_POINT ( 'NONE',  ( 3.491481338843133355E-14, -1.224646799147353059E-15, 10.00000000000000000 ) ) ;
#5 = DATE_TIME_ROLE ( 'creation_date' ) ;
#6 = DIRECTION ( 'NONE',  ( 4.275831445896958607E-31, 1.000000000000000000, 1.224646799147352961E-16 ) ) ;
#7 = EDGE_CURVE ( 'NONE', #95, #95, #82, .T. ) ;
#8 = PERSON_AND_ORGANIZATION ( #256, #21 ) ;
#9 = DIRECTION ( 'NONE',  ( -3.491481338843133355E-15, 1.224646799147352961E-16, -1.000000000000000000 ) ) ;
#10 = APPROVAL_ROLE ( '' ) ;
#11 = CC_DESIGN_PERSON_AND_ORGANIZATION_ASSIGNMENT ( #81, #196, ( #229 ) ) ;
#12 = FACE_OUTER_BOUND ( 'NONE', #294, .T. ) ;
#13 = PERSON_AND_ORGANIZATION ( #256, #21 ) ;
#14 = AXIS2_PLACEMENT_3D ( 'NONE', #221, #58, #56 ) ;
#15 = CC_DESIGN_APPROVAL ( #271, ( #164 ) ) ;
#16 = ORIENTED_EDGE ( 'NONE', *, *, #7, .T. ) ;
#17 = ORIENTED_EDGE ( 'NONE', *, *, #300, .T. ) ;
#18 = ADVANCED_FACE ( 'NONE', ( #92, #257 ), #179, .F. ) ;
#19 = EDGE_LOOP ( 'NONE', ( #154 ) ) ;
#20 = CLOSED_SHELL ( 'NONE', ( #234, #159, #128, #241 ) ) ;
#21 = ORGANIZATION ( 'UNSPECIFIED', 'UNSPECIFIED', '' ) ;
#22 = EDGE_LOOP ( 'NONE', ( #64 ) ) ;
#23 = MANIFOLD_SOLID_BREP ( 'Corps-Déplacer/Copier1[2]', #20 ) ;
#24 = AXIS2_PLACEMENT_3D ( 'NONE', #108, #124, #232 ) ;
#25 = DIRECTION ( 'NONE',  ( 3.902593605647899242E-31, 1.000000000000000000, 1.098482444260897465E-16 ) ) ;
#26 = CARTESIAN_POINT ( 'NONE',  ( 1.745740669421566678E-14, 0.4934999999999993836, 5.000000000000000000 ) ) ;
#27 = CARTESIAN_POINT ( 'NONE',  ( 1.778094382859736100E-14, -6.236715546280332012E-16, 5.092664718204936491 ) ) ;
#28 = PRODUCT ( '200032', '200032', '', ( #161 ) ) ;
#29 = DIRECTION ( 'NONE',  ( 4.275831445896957731E-31, 1.000000000000000000, 1.224646799147353207E-16 ) ) ;
#30 = CARTESIAN_POINT ( 'NONE',  ( 0.0000000000000000000, 0.0000000000000000000, 0.0000000000000000000 ) ) ;
#31 = DIRECTION ( 'NONE',  ( 0.0000000000000000000, -1.000000000000000000, 0.0000000000000000000 ) ) ;
#32 = CARTESIAN_POINT ( 'NONE',  ( 1.745740669421566678E-14, -6.123233995736765296E-16, 5.000000000000000000 ) ) ;
#33 = AXIS2_PLACEMENT_3D ( 'NONE', #32, #246, #180 ) ;
#34 = APPROVAL_PERSON_ORGANIZATION ( #248, #271, #10 ) ;
#35 = DATE_AND_TIME ( #200, #225 ) ;
#36 = PRODUCT_DEFINITION ( 'UNKNOWN', '', #164, #243 ) ;
#37 = FACE_OUTER_BOUND ( 'NONE', #131, .T. ) ;
#38 = DIRECTION ( 'NONE',  ( 4.275831445896956855E-31, 1.000000000000000000, 1.224646799147352961E-16 ) ) ;
#39 = DIRECTION ( 'NONE',  ( 0.0000000000000000000, 1.000000000000000000, 0.0000000000000000000 ) ) ;
#40 = ORIENTED_EDGE ( 'NONE', *, *, #45, .F. ) ;
#41 = AXIS2_PLACEMENT_3D ( 'NONE', #172, #268, #286 ) ;
#42 = EDGE_CURVE ( 'NONE', #265, #265, #202, .T. ) ;
#43 = ORIENTED_EDGE ( 'NONE', *, *, #72, .F. ) ;
#44 = AXIS2_PLACEMENT_3D ( 'NONE', #296, #59, #31 ) ;
#45 = EDGE_CURVE ( 'NONE', #281, #281, #48, .T. ) ;
#46 = DIRECTION ( 'NONE',  ( 0.0000000000000000000, 1.000000000000000000, 0.0000000000000000000 ) ) ;
#47 = VERTEX_POINT ( 'NONE', #26 ) ;
#48 = CIRCLE ( 'NONE', #178, 0.4399999999999995581 ) ;
#49 = LOCAL_TIME ( 15, 49, 22.00000000000000000, #214 ) ;
#50 = VERTEX_POINT ( 'NONE', #237 ) ;
#51 = DIRECTION ( 'NONE',  ( -3.491481338843133355E-15, 1.224646799147352961E-16, -1.000000000000000000 ) ) ;
#52 = DIRECTION ( 'NONE',  ( -3.491481338843133355E-15, 1.224646799147352961E-16, -1.000000000000000000 ) ) ;
#53 = APPROVAL_DATE_TIME ( #1, #109 ) ;
#54 = CARTESIAN_POINT ( 'NONE',  ( 1.316288464743861212E-13, 1.499999999999998668, 37.69999999999999574 ) ) ;
#55 = AXIS2_PLACEMENT_3D ( 'NONE', #208, #299, #25 ) ;
#56 = DIRECTION ( 'NONE',  ( -3.902593605647899242E-31, -1.000000000000000000, -1.098482444260897465E-16 ) ) ;
#57 = VERTEX_POINT ( 'NONE', #54 ) ;
#58 = DIRECTION ( 'NONE',  ( 3.491481338843133355E-15, -1.224646799147352961E-16, 1.000000000000000000 ) ) ;
#59 = DIRECTION ( 'NONE',  ( 3.491481338843133355E-15, -1.224646799147352961E-16, 1.000000000000000000 ) ) ;
#60 = CARTESIAN_POINT ( 'NONE',  ( -3.350122090494787468E-32, 1.175064649274818553E-33, -9.595131021392817835E-18 ) ) ;
#61 = EDGE_LOOP ( 'NONE', ( #255 ) ) ;
#62 = CYLINDRICAL_SURFACE ( 'NONE', #245, 0.4399999999999998912 ) ;
#63 = DIRECTION ( 'NONE',  ( -4.275831445896957731E-31, -1.000000000000000000, -1.224646799147352961E-16 ) ) ;
#64 = ORIENTED_EDGE ( 'NONE', *, *, #45, .T. ) ;
#65 = FACE_OUTER_BOUND ( 'NONE', #160, .T. ) ;
#66 = CIRCLE ( 'NONE', #240, 0.4400000000000002243 ) ;
#67 = ORIENTED_EDGE ( 'NONE', *, *, #191, .T. ) ;
#68 = FACE_OUTER_BOUND ( 'NONE', #298, .T. ) ;
#69 = EDGE_LOOP ( 'NONE', ( #67 ) ) ;
#70 = AXIS2_PLACEMENT_3D ( 'NONE', #119, #52, #140 ) ;
#71 =( LENGTH_UNIT ( ) NAMED_UNIT ( * ) SI_UNIT ( .MILLI., .METRE. ) );
#72 = EDGE_CURVE ( 'NONE', #50, #50, #94, .T. ) ;
#73 = PERSON_AND_ORGANIZATION ( #256, #21 ) ;
#74 = ADVANCED_BREP_SHAPE_REPRESENTATION ( '200032', ( #219, #23, #184 ), #118 ) ;
#75 = DIRECTION ( 'NONE',  ( -3.491481338843133355E-15, 1.224646799147352961E-16, -1.000000000000000000 ) ) ;
#76 = APPROVAL_ROLE ( '' ) ;
#77 = AXIS2_PLACEMENT_3D ( 'NONE', #168, #264, #210 ) ;
#78 = DATE_AND_TIME ( #97, #267 ) ;
#79 = PERSON_AND_ORGANIZATION ( #256, #21 ) ;
#80 = ORIENTED_EDGE ( 'NONE', *, *, #174, .F. ) ;
#81 = PERSON_AND_ORGANIZATION ( #256, #21 ) ;
#82 = CIRCLE ( 'NONE', #55, 0.4934999999999993836 ) ;
#83 = ORIENTED_EDGE ( 'NONE', *, *, #72, .T. ) ;
#84 = CC_DESIGN_PERSON_AND_ORGANIZATION_ASSIGNMENT ( #8, #230, ( #164 ) ) ;
#85 = DIRECTION ( 'NONE',  ( 3.491481338843133355E-15, -1.224646799147352961E-16, 1.000000000000000000 ) ) ;
#86 = CARTESIAN_POINT ( 'NONE',  ( 0.0000000000000000000, 0.0000000000000000000, 0.0000000000000000000 ) ) ;
#87 = EDGE_LOOP ( 'NONE', ( #182 ) ) ;
#88 = EDGE_LOOP ( 'NONE', ( #83 ) ) ;
#89 = APPROVAL_PERSON_ORGANIZATION ( #73, #109, #76 ) ;
#90 = CARTESIAN_POINT ( 'NONE',  ( 1.326762908760390423E-13, 1.199999999999998845, 38.00000000000000000 ) ) ;
#91 = ADVANCED_FACE ( 'NONE', ( #176, #292 ), #155, .T. ) ;
#92 = FACE_OUTER_BOUND ( 'NONE', #156, .T. ) ;
#93 = PERSON_AND_ORGANIZATION ( #256, #21 ) ;
#94 = CIRCLE ( 'NONE', #293, 0.4934999999999999942 ) ;
#95 = VERTEX_POINT ( 'NONE', #258 ) ;
#96 = FACE_BOUND ( 'NONE', #19, .T. ) ;
#97 = CALENDAR_DATE ( 2021, 29, 11 ) ;
#98 = APPROVAL_STATUS ( 'not_yet_approved' ) ;
#99 = APPROVAL_PERSON_ORGANIZATION ( #79, #247, #181 ) ;
#100 = DIRECTION ( 'NONE',  ( 0.0000000000000000000, 1.000000000000000000, 0.0000000000000000000 ) ) ;
#101 = EDGE_CURVE ( 'NONE', #57, #57, #218, .T. ) ;
#102 = CYLINDRICAL_SURFACE ( 'NONE', #163, 0.4934999999999997167 ) ;
#103 = PERSON_AND_ORGANIZATION_ROLE ( 'creator' ) ;
#104 = FACE_BOUND ( 'NONE', #22, .T. ) ;
#105 = COORDINATED_UNIVERSAL_TIME_OFFSET ( 1, 0, .AHEAD. ) ;
#106 = CIRCLE ( 'NONE', #33, 0.4934999999999999942 ) ;
#107 = EDGE_LOOP ( 'NONE', ( #111 ) ) ;
#108 = CARTESIAN_POINT ( 'NONE',  ( 1.745740669421566678E-14, 3.700657263718122481E-33, 5.000000000000000000 ) ) ;
#109 = APPROVAL ( #189, 'UNSPECIFIED' ) ;
#110 = ORIENTED_EDGE ( 'NONE', *, *, #191, .F. ) ;
#111 = ORIENTED_EDGE ( 'NONE', *, *, #42, .T. ) ;
#112 = AXIS2_PLACEMENT_3D ( 'NONE', #122, #9, #197 ) ;
#113 = CC_DESIGN_PERSON_AND_ORGANIZATION_ASSIGNMENT ( #13, #103, ( #164 ) ) ;
#114 = CARTESIAN_POINT ( 'NONE',  ( 5.651498857950076305E-14, 1.499999999999995559, 16.18653605584683675 ) ) ;
#115 = CARTESIAN_POINT ( 'NONE',  ( 1.778094382859736100E-14, 0.4399999999999989475, 5.092664718204936491 ) ) ;
#116 = DATE_AND_TIME ( #142, #144 ) ;
#117 = FACE_OUTER_BOUND ( 'NONE', #107, .T. ) ;
#118 =( GEOMETRIC_REPRESENTATION_CONTEXT ( 3 ) GLOBAL_UNCERTAINTY_ASSIGNED_CONTEXT ( ( #198 ) ) GLOBAL_UNIT_ASSIGNED_CONTEXT ( ( #71, #287, #216 ) ) REPRESENTATION_CONTEXT ( 'NONE', 'WORKASPACE' ) );
#119 = CARTESIAN_POINT ( 'NONE',  ( 3.612739213212769111E-14, -1.267178336138866575E-15, 10.34729635533384595 ) ) ;
#120 = DIRECTION ( 'NONE',  ( 0.0000000000000000000, 1.000000000000000000, 0.0000000000000000000 ) ) ;
#121 = CARTESIAN_POINT ( 'NONE',  ( 3.612739213212769111E-14, 0.4703844939755801868, 10.34729635533384595 ) ) ;
#122 = CARTESIAN_POINT ( 'NONE',  ( 1.316288464743861212E-13, -4.616918432785520292E-15, 37.69999999999999574 ) ) ;
#123 = LOCAL_TIME ( 15, 49, 22.00000000000000000, #146 ) ;
#124 = DIRECTION ( 'NONE',  ( 3.491481338843133355E-15, -1.224646799147352961E-16, 1.000000000000000000 ) ) ;
#125 = FACE_OUTER_BOUND ( 'NONE', #69, .T. ) ;
#126 = DIRECTION ( 'NONE',  ( -3.491481338843133355E-15, 1.224646799147352961E-16, -1.000000000000000000 ) ) ;
#127 = APPLICATION_CONTEXT ( 'configuration controlled 3d designs of mechanical parts and assemblies' ) ;
#128 = ADVANCED_FACE ( 'NONE', ( #244, #125 ), #102, .T. ) ;
#129 = APPROVAL_DATE_TIME ( #290, #271 ) ;
#130 = AXIS2_PLACEMENT_3D ( 'NONE', #275, #150, #39 ) ;
#131 = EDGE_LOOP ( 'NONE', ( #110 ) ) ;
#132 = FACE_OUTER_BOUND ( 'NONE', #61, .T. ) ;
#133 = EDGE_LOOP ( 'NONE', ( #301 ) ) ;
#134 = FACE_OUTER_BOUND ( 'NONE', #88, .T. ) ;
#135 = CC_DESIGN_DATE_AND_TIME_ASSIGNMENT ( #116, #5, ( #36 ) ) ;
#136 = VERTEX_POINT ( 'NONE', #114 ) ;
#137 = AXIS2_PLACEMENT_3D ( 'NONE', #165, #139, #238 ) ;
#138 = VERTEX_POINT ( 'NONE', #90 ) ;
#139 = DIRECTION ( 'NONE',  ( -3.491481338843133355E-15, 1.224646799147352961E-16, -1.000000000000000000 ) ) ;
#140 = DIRECTION ( 'NONE',  ( 0.0000000000000000000, 1.000000000000000000, 0.0000000000000000000 ) ) ;
#141 = PERSON_AND_ORGANIZATION_ROLE ( 'creator' ) ;
#142 = CALENDAR_DATE ( 2021, 29, 11 ) ;
#143 = AXIS2_PLACEMENT_3D ( 'NONE', #215, #2, #6 ) ;
#144 = LOCAL_TIME ( 15, 49, 22.00000000000000000, #162 ) ;
#145 = CARTESIAN_POINT ( 'NONE',  ( 3.491481338843133355E-14, 0.4399999999999990030, 10.00000000000000000 ) ) ;
#146 = COORDINATED_UNIVERSAL_TIME_OFFSET ( 1, 0, .AHEAD. ) ;
#147 = AXIS2_PLACEMENT_3D ( 'NONE', #288, #170, #120 ) ;
#148 = DIRECTION ( 'NONE',  ( -3.491481338843133355E-15, 1.224646799147352961E-16, -1.000000000000000000 ) ) ;
#149 = ADVANCED_FACE ( 'NONE', ( #68 ), #242, .F. ) ;
#150 = DIRECTION ( 'NONE',  ( -3.491481338843133355E-15, 1.224646799147352961E-16, -1.000000000000000000 ) ) ;
#151 = DIRECTION ( 'NONE',  ( -3.491481338843133355E-15, 1.224646799147352961E-16, -1.000000000000000000 ) ) ;
#152 = AXIS2_PLACEMENT_3D ( 'NONE', #249, #126, #228 ) ;
#153 = CYLINDRICAL_SURFACE ( 'NONE', #235, 1.500000000000000444 ) ;
#154 = ORIENTED_EDGE ( 'NONE', *, *, #42, .F. ) ;
#155 = CONICAL_SURFACE ( 'NONE', #44, 1.499999999999997335, 0.1745329251994262032 ) ;
#156 = EDGE_LOOP ( 'NONE', ( #269 ) ) ;
#157 = CC_DESIGN_APPROVAL ( #109, ( #36 ) ) ;
#158 = APPLICATION_CONTEXT ( 'configuration controlled 3d designs of mechanical parts and assemblies' ) ;
#159 = ADVANCED_FACE ( 'NONE', ( #96, #166 ), #207, .T. ) ;
#160 = EDGE_LOOP ( 'NONE', ( #177 ) ) ;
#161 = MECHANICAL_CONTEXT ( 'NONE', #127, 'mechanical' ) ;
#162 = COORDINATED_UNIVERSAL_TIME_OFFSET ( 1, 0, .AHEAD. ) ;
#163 = AXIS2_PLACEMENT_3D ( 'NONE', #201, #251, #38 ) ;
#164 = PRODUCT_DEFINITION_FORMATION_WITH_SPECIFIED_SOURCE ( 'ANY', '', #28, .NOT_KNOWN. ) ;
#165 = CARTESIAN_POINT ( 'NONE',  ( -6.700244180989574935E-32, 2.350129298549637107E-33, -1.919026204278563567E-17 ) ) ;
#166 = FACE_OUTER_BOUND ( 'NONE', #274, .T. ) ;
#167 = CALENDAR_DATE ( 2021, 29, 11 ) ;
#168 = CARTESIAN_POINT ( 'NONE',  ( 1.745740669421566678E-14, 3.700657263718122481E-33, 5.000000000000000000 ) ) ;
#169 = DIRECTION ( 'NONE',  ( 1.000000000000000000, 0.0000000000000000000, 0.0000000000000000000 ) ) ;
#170 = DIRECTION ( 'NONE',  ( -3.491481338843133355E-15, 1.224646799147352961E-16, -1.000000000000000000 ) ) ;
#171 = CC_DESIGN_SECURITY_CLASSIFICATION ( #229, ( #164 ) ) ;
#172 = CARTESIAN_POINT ( 'NONE',  ( 1.326762908760390423E-13, 8.998558695971099120E-33, 38.00000000000000000 ) ) ;
#173 = APPROVAL_STATUS ( 'not_yet_approved' ) ;
#174 = EDGE_CURVE ( 'NONE', #283, #283, #224, .T. ) ;
#175 = ORIENTED_EDGE ( 'NONE', *, *, #7, .F. ) ;
#176 = FACE_BOUND ( 'NONE', #211, .T. ) ;
#177 = ORIENTED_EDGE ( 'NONE', *, *, #187, .T. ) ;
#178 = AXIS2_PLACEMENT_3D ( 'NONE', #27, #3, #217 ) ;
#179 = TOROIDAL_SURFACE ( 'NONE', #143, 2.440000000000000391, 2.000000000000000000 ) ;
#180 = DIRECTION ( 'NONE',  ( 0.0000000000000000000, 1.000000000000000000, 0.0000000000000000000 ) ) ;
#181 = APPROVAL_ROLE ( '' ) ;
#182 = ORIENTED_EDGE ( 'NONE', *, *, #193, .T. ) ;
#183 = PLANE ( 'NONE',  #24 ) ;
#184 = AXIS2_PLACEMENT_3D ( 'NONE', #30, #261, #169 ) ;
#185 = EDGE_LOOP ( 'NONE', ( #40 ) ) ;
#186 = PLANE ( 'NONE',  #253 ) ;
#187 = EDGE_CURVE ( 'NONE', #239, #239, #66, .T. ) ;
#188 = CIRCLE ( 'NONE', #152, 1.200000000000003286 ) ;
#189 = APPROVAL_STATUS ( 'not_yet_approved' ) ;
#190 = CARTESIAN_POINT ( 'NONE',  ( 9.463679131915806782E-32, 0.3780299461620759138, 2.710505431213761085E-17 ) ) ;
#191 = EDGE_CURVE ( 'NONE', #47, #47, #106, .T. ) ;
#192 = PERSON_AND_ORGANIZATION_ROLE ( 'design_owner' ) ;
#193 = EDGE_CURVE ( 'NONE', #138, #138, #188, .T. ) ;
#194 = DATE_TIME_ROLE ( 'classification_date' ) ;
#195 = CIRCLE ( 'NONE', #147, 1.499999999999997335 ) ;
#196 = PERSON_AND_ORGANIZATION_ROLE ( 'classification_officer' ) ;
#197 = DIRECTION ( 'NONE',  ( 0.0000000000000000000, 1.000000000000000000, 0.0000000000000000000 ) ) ;
#198 = UNCERTAINTY_MEASURE_WITH_UNIT (LENGTH_MEASURE( 1.000000000000000082E-05 ), #71, 'distance_accuracy_value', 'NONE');
#199 = APPROVAL_DATE_TIME ( #35, #247 ) ;
#200 = CALENDAR_DATE ( 2021, 29, 11 ) ;
#201 = CARTESIAN_POINT ( 'NONE',  ( 0.0000000000000000000, 0.0000000000000000000, 0.0000000000000000000 ) ) ;
#202 = CIRCLE ( 'NONE', #137, 0.3780299461620759138 ) ;
#203 = DIRECTION ( 'NONE',  ( -3.491481338843133355E-15, 1.224646799147352961E-16, -1.000000000000000000 ) ) ;
#204 = ORIENTED_EDGE ( 'NONE', *, *, #174, .T. ) ;
#205 = ADVANCED_FACE ( 'NONE', ( #12, #104 ), #212, .T. ) ;
#206 = ORIENTED_EDGE ( 'NONE', *, *, #300, .F. ) ;
#207 = CONICAL_SURFACE ( 'NONE', #14, 0.4934999999999993836, 0.5235987755982923764 ) ;
#208 = CARTESIAN_POINT ( 'NONE',  ( 6.982962677686266711E-16, -2.449293598294705613E-17, 0.1999999999999999833 ) ) ;
#209 = ADVANCED_FACE ( 'NONE', ( #132, #280 ), #266, .T. ) ;
#210 = DIRECTION ( 'NONE',  ( -4.275831445896957731E-31, -1.000000000000000000, -1.224646799147352961E-16 ) ) ;
#211 = EDGE_LOOP ( 'NONE', ( #80 ) ) ;
#212 = CONICAL_SURFACE ( 'NONE', #130, 0.4399999999999995581, 0.5235987755982945968 ) ;
#213 = PRODUCT_DEFINITION_SHAPE ( 'NONE', 'NONE',  #36 ) ;
#214 = COORDINATED_UNIVERSAL_TIME_OFFSET ( 1, 0, .AHEAD. ) ;
#215 = CARTESIAN_POINT ( 'NONE',  ( 3.491481338843133355E-14, -1.301042606982605321E-15, 10.00000000000000000 ) ) ;
#216 =( NAMED_UNIT ( * ) SI_UNIT ( $, .STERADIAN. ) SOLID_ANGLE_UNIT ( ) );
#217 = DIRECTION ( 'NONE',  ( 0.0000000000000000000, 1.000000000000000000, 0.0000000000000000000 ) ) ;
#218 = CIRCLE ( 'NONE', #112, 1.500000000000003331 ) ;
#219 = MANIFOLD_SOLID_BREP ( 'Corps-Déplacer/Copier1[1]', #277 ) ;
#220 = CC_DESIGN_APPROVAL ( #247, ( #229 ) ) ;
#221 = CARTESIAN_POINT ( 'NONE',  ( 6.982962677686266711E-16, -2.449293598294705613E-17, 0.1999999999999999833 ) ) ;
#222 = APPLICATION_PROTOCOL_DEFINITION ( 'international standard', 'config_control_design', 1994, #158 ) ;
#223 = ADVANCED_FACE ( 'NONE', ( #134 ), #285, .F. ) ;
#224 = CIRCLE ( 'NONE', #70, 0.4703844939755814081 ) ;
#225 = LOCAL_TIME ( 15, 49, 22.00000000000000000, #105 ) ;
#226 = CALENDAR_DATE ( 2021, 29, 11 ) ;
#227 = CARTESIAN_POINT ( 'NONE',  ( 1.745740669421566678E-14, -6.123233995736765296E-16, 5.000000000000000000 ) ) ;
#228 = DIRECTION ( 'NONE',  ( 0.0000000000000000000, 1.000000000000000000, 0.0000000000000000000 ) ) ;
#229 = SECURITY_CLASSIFICATION ( '', '', #273 ) ;
#230 = PERSON_AND_ORGANIZATION_ROLE ( 'design_supplier' ) ;
#231 = EDGE_LOOP ( 'NONE', ( #204 ) ) ;
#232 = DIRECTION ( 'NONE',  ( -4.275831445896957731E-31, -1.000000000000000000, -1.224646799147352961E-16 ) ) ;
#233 = EDGE_LOOP ( 'NONE', ( #206 ) ) ;
#234 = ADVANCED_FACE ( 'NONE', ( #117 ), #186, .F. ) ;
#235 = AXIS2_PLACEMENT_3D ( 'NONE', #86, #51, #29 ) ;
#236 = CC_DESIGN_PERSON_AND_ORGANIZATION_ASSIGNMENT ( #282, #141, ( #36 ) ) ;
#237 = CARTESIAN_POINT ( 'NONE',  ( 1.745740669421566678E-14, 0.4934999999999993836, 5.000000000000000000 ) ) ;
#238 = DIRECTION ( 'NONE',  ( 4.275831445896957731E-31, 1.000000000000000000, 1.224646799147352961E-16 ) ) ;
#239 = VERTEX_POINT ( 'NONE', #145 ) ;
#240 = AXIS2_PLACEMENT_3D ( 'NONE', #4, #151, #270 ) ;
#241 = ADVANCED_FACE ( 'NONE', ( #37 ), #183, .T. ) ;
#242 = PLANE ( 'NONE',  #41 ) ;
#243 = DESIGN_CONTEXT ( 'detailed design', #158, 'design' ) ;
#244 = FACE_OUTER_BOUND ( 'NONE', #302, .T. ) ;
#245 = AXIS2_PLACEMENT_3D ( 'NONE', #254, #75, #263 ) ;
#246 = DIRECTION ( 'NONE',  ( -3.491481338843133355E-15, 1.224646799147352961E-16, -1.000000000000000000 ) ) ;
#247 = APPROVAL ( #173, 'UNSPECIFIED' ) ;
#248 = PERSON_AND_ORGANIZATION ( #256, #21 ) ;
#249 = CARTESIAN_POINT ( 'NONE',  ( 1.326762908760390423E-13, -4.653657836759941152E-15, 38.00000000000000000 ) ) ;
#250 = COORDINATED_UNIVERSAL_TIME_OFFSET ( 1, 0, .AHEAD. ) ;
#251 = DIRECTION ( 'NONE',  ( -3.491481338843133355E-15, 1.224646799147352961E-16, -1.000000000000000000 ) ) ;
#252 = CC_DESIGN_DATE_AND_TIME_ASSIGNMENT ( #78, #194, ( #229 ) ) ;
#253 = AXIS2_PLACEMENT_3D ( 'NONE', #60, #85, #63 ) ;
#254 = CARTESIAN_POINT ( 'NONE',  ( 0.0000000000000000000, 0.0000000000000000000, 0.0000000000000000000 ) ) ;
#255 = ORIENTED_EDGE ( 'NONE', *, *, #101, .F. ) ;
#256 = PERSON ( 'UNSPECIFIED', 'UNSPECIFIED', 'UNSPECIFIED', ('UNSPECIFIED'), ('UNSPECIFIED'), ('UNSPECIFIED') ) ;
#257 = FACE_OUTER_BOUND ( 'NONE', #231, .T. ) ;
#258 = CARTESIAN_POINT ( 'NONE',  ( 6.982962677686268683E-16, 0.4934999999999993836, 0.2000000000000000389 ) ) ;
#259 = PRODUCT_RELATED_PRODUCT_CATEGORY ( 'detail', '', ( #28 ) ) ;
#260 = FACE_OUTER_BOUND ( 'NONE', #233, .T. ) ;
#261 = DIRECTION ( 'NONE',  ( 0.0000000000000000000, 0.0000000000000000000, 1.000000000000000000 ) ) ;
#262 = APPLICATION_PROTOCOL_DEFINITION ( 'international standard', 'config_control_design', 1994, #127 ) ;
#263 = DIRECTION ( 'NONE',  ( 4.275831445896957731E-31, 1.000000000000000000, 1.224646799147352961E-16 ) ) ;
#264 = DIRECTION ( 'NONE',  ( 3.491481338843133355E-15, -1.224646799147352961E-16, 1.000000000000000000 ) ) ;
#265 = VERTEX_POINT ( 'NONE', #190 ) ;
#266 = CONICAL_SURFACE ( 'NONE', #303, 1.200000000000003286, 0.7853981633974453924 ) ;
#267 = LOCAL_TIME ( 15, 49, 22.00000000000000000, #250 ) ;
#268 = DIRECTION ( 'NONE',  ( -3.491481338843133355E-15, 1.224646799147352961E-16, -1.000000000000000000 ) ) ;
#269 = ORIENTED_EDGE ( 'NONE', *, *, #187, .F. ) ;
#270 = DIRECTION ( 'NONE',  ( 0.0000000000000000000, 1.000000000000000000, 0.0000000000000000000 ) ) ;
#271 = APPROVAL ( #98, 'UNSPECIFIED' ) ;
#272 = CARTESIAN_POINT ( 'NONE',  ( 1.326762908760390423E-13, -4.653657836759941152E-15, 38.00000000000000000 ) ) ;
#273 = SECURITY_CLASSIFICATION_LEVEL ( 'unclassified' ) ;
#274 = EDGE_LOOP ( 'NONE', ( #16 ) ) ;
#275 = CARTESIAN_POINT ( 'NONE',  ( 1.778094382859736100E-14, -6.236715546280332012E-16, 5.092664718204936491 ) ) ;
#276 = ADVANCED_FACE ( 'NONE', ( #295, #65 ), #62, .T. ) ;
#277 = CLOSED_SHELL ( 'NONE', ( #223, #205, #276, #18, #91, #291, #209, #149 ) ) ;
#278 = ORIENTED_EDGE ( 'NONE', *, *, #193, .F. ) ;
#279 = EDGE_LOOP ( 'NONE', ( #17 ) ) ;
#280 = FACE_BOUND ( 'NONE', #87, .T. ) ;
#281 = VERTEX_POINT ( 'NONE', #115 ) ;
#282 = PERSON_AND_ORGANIZATION ( #256, #21 ) ;
#283 = VERTEX_POINT ( 'NONE', #121 ) ;
#284 = CC_DESIGN_PERSON_AND_ORGANIZATION_ASSIGNMENT ( #93, #192, ( #28 ) ) ;
#285 = PLANE ( 'NONE',  #77 ) ;
#286 = DIRECTION ( 'NONE',  ( 4.275831445896957731E-31, 1.000000000000000000, 1.224646799147352961E-16 ) ) ;
#287 =( NAMED_UNIT ( * ) PLANE_ANGLE_UNIT ( ) SI_UNIT ( $, .RADIAN. ) );
#288 = CARTESIAN_POINT ( 'NONE',  ( 5.651498857950076305E-14, -1.982278957007604588E-15, 16.18653605584683675 ) ) ;
#289 = SHAPE_DEFINITION_REPRESENTATION ( #213, #74 ) ;
#290 = DATE_AND_TIME ( #226, #123 ) ;
#291 = ADVANCED_FACE ( 'NONE', ( #260, #297 ), #153, .T. ) ;
#292 = FACE_OUTER_BOUND ( 'NONE', #279, .T. ) ;
#293 = AXIS2_PLACEMENT_3D ( 'NONE', #227, #148, #100 ) ;
#294 = EDGE_LOOP ( 'NONE', ( #43 ) ) ;
#295 = FACE_OUTER_BOUND ( 'NONE', #185, .T. ) ;
#296 = CARTESIAN_POINT ( 'NONE',  ( 5.651498857950076305E-14, -1.982278957007604588E-15, 16.18653605584683675 ) ) ;
#297 = FACE_OUTER_BOUND ( 'NONE', #133, .T. ) ;
#298 = EDGE_LOOP ( 'NONE', ( #278 ) ) ;
#299 = DIRECTION ( 'NONE',  ( -3.491481338843133355E-15, 1.224646799147352961E-16, -1.000000000000000000 ) ) ;
#300 = EDGE_CURVE ( 'NONE', #136, #136, #195, .T. ) ;
#301 = ORIENTED_EDGE ( 'NONE', *, *, #101, .T. ) ;
#302 = EDGE_LOOP ( 'NONE', ( #175 ) ) ;
#303 = AXIS2_PLACEMENT_3D ( 'NONE', #272, #203, #46 ) ;
ENDSEC;
END-ISO-10303-21;
