ISO-10303-21;
HEADER;
FILE_DESCRIPTION (( 'STEP AP203' ),
    '1' );
FILE_NAME ('200031.step',
    '2021-11-29T14:49:21',
    ( '' ),
    ( '' ),
    'SwSTEP 2.0',
    'SolidWorks 2019',
    '' );
FILE_SCHEMA (( 'CONFIG_CONTROL_DESIGN' ));
ENDSEC;

DATA;
#1 = ORIENTED_EDGE ( 'NONE', *, *, #45, .F. ) ;
#2 = CARTESIAN_POINT ( 'NONE',  ( 1.745740669421566678E-14, 3.288223323486112049E-33, 5.000000000000000000 ) ) ;
#3 = EDGE_LOOP ( 'NONE', ( #104 ) ) ;
#4 = CARTESIAN_POINT ( 'NONE',  ( 3.263591079328455776E-14, -1.144713656224131229E-15, 9.347296355333845952 ) ) ;
#5 = DATE_AND_TIME ( #163, #288 ) ;
#6 = PRODUCT_RELATED_PRODUCT_CATEGORY ( 'detail', '', ( #112 ) ) ;
#7 = EDGE_LOOP ( 'NONE', ( #244 ) ) ;
#8 = LOCAL_TIME ( 15, 49, 21.00000000000000000, #115 ) ;
#9 = AXIS2_PLACEMENT_3D ( 'NONE', #86, #63, #179 ) ;
#10 = FACE_OUTER_BOUND ( 'NONE', #218, .T. ) ;
#11 = EDGE_LOOP ( 'NONE', ( #50 ) ) ;
#12 = AXIS2_PLACEMENT_3D ( 'NONE', #51, #187, #74 ) ;
#13 = COORDINATED_UNIVERSAL_TIME_OFFSET ( 1, 0, .AHEAD. ) ;
#14 = DIRECTION ( 'NONE',  ( -3.491481338843133355E-15, 1.224646799147352961E-16, -1.000000000000000000 ) ) ;
#15 = ADVANCED_FACE ( 'NONE', ( #199, #40 ), #142, .T. ) ;
#16 = DIRECTION ( 'NONE',  ( -3.491481338843133355E-15, 1.224646799147352961E-16, -1.000000000000000000 ) ) ;
#17 = ORIENTED_EDGE ( 'NONE', *, *, #211, .F. ) ;
#18 = PERSON_AND_ORGANIZATION_ROLE ( 'design_supplier' ) ;
#19 = DIRECTION ( 'NONE',  ( -3.491481338843133355E-15, 1.224646799147352961E-16, -1.000000000000000000 ) ) ;
#20 = AXIS2_PLACEMENT_3D ( 'NONE', #2, #275, #257 ) ;
#21 = VERTEX_POINT ( 'NONE', #246 ) ;
#22 = CC_DESIGN_DATE_AND_TIME_ASSIGNMENT ( #54, #219, ( #217 ) ) ;
#23 = DIRECTION ( 'NONE',  ( 0.0000000000000000000, 1.000000000000000000, 0.0000000000000000000 ) ) ;
#24 = AXIS2_PLACEMENT_3D ( 'NONE', #103, #120, #98 ) ;
#25 = CARTESIAN_POINT ( 'NONE',  ( 1.326762908760390423E-13, 1.199999999999998845, 38.00000000000000000 ) ) ;
#26 = PRODUCT_DEFINITION_SHAPE ( 'NONE', 'NONE',  #43 ) ;
#27 = CARTESIAN_POINT ( 'NONE',  ( -1.628086845396009277E-31, 5.710559932732648765E-33, -4.663026055111207209E-17 ) ) ;
#28 = EDGE_LOOP ( 'NONE', ( #170 ) ) ;
#29 = DIRECTION ( 'NONE',  ( 4.392086532239997039E-31, 1.000000000000000000, 1.236262454373439039E-16 ) ) ;
#30 = ADVANCED_FACE ( 'NONE', ( #99, #10 ), #72, .F. ) ;
#31 = DIRECTION ( 'NONE',  ( 0.0000000000000000000, -1.000000000000000000, 0.0000000000000000000 ) ) ;
#32 = FACE_OUTER_BOUND ( 'NONE', #11, .T. ) ;
#33 = AXIS2_PLACEMENT_3D ( 'NONE', #39, #285, #289 ) ;
#34 = CARTESIAN_POINT ( 'NONE',  ( 1.326762908760390423E-13, -4.653657836759941152E-15, 38.00000000000000000 ) ) ;
#35 = ORIENTED_EDGE ( 'NONE', *, *, #256, .F. ) ;
#36 = PERSON_AND_ORGANIZATION ( #91, #200 ) ;
#37 = FACE_OUTER_BOUND ( 'NONE', #100, .T. ) ;
#38 = CIRCLE ( 'NONE', #290, 0.4385000000000000009 ) ;
#39 = CARTESIAN_POINT ( 'NONE',  ( 0.0000000000000000000, 0.0000000000000000000, 0.0000000000000000000 ) ) ;
#40 = FACE_OUTER_BOUND ( 'NONE', #198, .T. ) ;
#41 = PERSON_AND_ORGANIZATION ( #91, #200 ) ;
#42 = VERTEX_POINT ( 'NONE', #139 ) ;
#43 = PRODUCT_DEFINITION ( 'UNKNOWN', '', #176, #238 ) ;
#44 = CARTESIAN_POINT ( 'NONE',  ( 1.316288464743861212E-13, 1.499999999999998668, 37.69999999999999574 ) ) ;
#45 = EDGE_CURVE ( 'NONE', #227, #227, #166, .T. ) ;
#46 = DIRECTION ( 'NONE',  ( -3.491481338843133355E-15, 1.224646799147352961E-16, -1.000000000000000000 ) ) ;
#47 = CC_DESIGN_APPROVAL ( #151, ( #176 ) ) ;
#48 = PLANE ( 'NONE',  #24 ) ;
#49 = CALENDAR_DATE ( 2021, 29, 11 ) ;
#50 = ORIENTED_EDGE ( 'NONE', *, *, #65, .F. ) ;
#51 = CARTESIAN_POINT ( 'NONE',  ( 1.326762908760390423E-13, -4.653657836759941152E-15, 38.00000000000000000 ) ) ;
#52 = AXIS2_PLACEMENT_3D ( 'NONE', #206, #300, #95 ) ;
#53 = ORIENTED_EDGE ( 'NONE', *, *, #184, .T. ) ;
#54 = DATE_AND_TIME ( #128, #158 ) ;
#55 = CYLINDRICAL_SURFACE ( 'NONE', #88, 0.3949999999999998512 ) ;
#56 = DATE_AND_TIME ( #105, #254 ) ;
#57 = APPROVAL_DATE_TIME ( #56, #270 ) ;
#58 = EDGE_LOOP ( 'NONE', ( #236 ) ) ;
#59 = UNCERTAINTY_MEASURE_WITH_UNIT (LENGTH_MEASURE( 1.000000000000000082E-05 ), #298, 'distance_accuracy_value', 'NONE');
#60 = ADVANCED_FACE ( 'NONE', ( #185 ), #73, .F. ) ;
#61 = AXIS2_PLACEMENT_3D ( 'NONE', #291, #260, #90 ) ;
#62 =( GEOMETRIC_REPRESENTATION_CONTEXT ( 3 ) GLOBAL_UNCERTAINTY_ASSIGNED_CONTEXT ( ( #59 ) ) GLOBAL_UNIT_ASSIGNED_CONTEXT ( ( #298, #250, #265 ) ) REPRESENTATION_CONTEXT ( 'NONE', 'WORKASPACE' ) );
#63 = DIRECTION ( 'NONE',  ( 3.491481338843133355E-15, -1.224646799147352961E-16, 1.000000000000000000 ) ) ;
#64 = MANIFOLD_SOLID_BREP ( 'Corps-Déplacer/Copier1[1]', #122 ) ;
#65 = EDGE_CURVE ( 'NONE', #301, #301, #38, .T. ) ;
#66 = CARTESIAN_POINT ( 'NONE',  ( 3.491481338843134341E-16, 0.4384999999999993903, 0.1000000000000000194 ) ) ;
#67 = CC_DESIGN_APPROVAL ( #79, ( #43 ) ) ;
#68 = DIRECTION ( 'NONE',  ( -3.491481338843133355E-15, 1.224646799147352961E-16, -1.000000000000000000 ) ) ;
#69 = ADVANCED_FACE ( 'NONE', ( #253 ), #48, .F. ) ;
#70 = DIRECTION ( 'NONE',  ( -3.491481338843133355E-15, 1.224646799147352961E-16, -1.000000000000000000 ) ) ;
#71 = CONICAL_SURFACE ( 'NONE', #204, 0.3949999999999995182, 0.5235987755982931535 ) ;
#72 = TOROIDAL_SURFACE ( 'NONE', #134, 2.395000000000000462, 2.000000000000000000 ) ;
#73 = PLANE ( 'NONE',  #220 ) ;
#74 = DIRECTION ( 'NONE',  ( 0.0000000000000000000, 1.000000000000000000, 0.0000000000000000000 ) ) ;
#75 = EDGE_CURVE ( 'NONE', #181, #181, #193, .T. ) ;
#76 = FACE_BOUND ( 'NONE', #58, .T. ) ;
#77 = COORDINATED_UNIVERSAL_TIME_OFFSET ( 1, 0, .AHEAD. ) ;
#78 = AXIS2_PLACEMENT_3D ( 'NONE', #284, #16, #172 ) ;
#79 = APPROVAL ( #302, 'UNSPECIFIED' ) ;
#80 = ADVANCED_BREP_SHAPE_REPRESENTATION ( '200031', ( #64, #157, #33 ), #62 ) ;
#81 = DIRECTION ( 'NONE',  ( 4.275831445896957731E-31, 1.000000000000000000, 1.224646799147352961E-16 ) ) ;
#82 = ORIENTED_EDGE ( 'NONE', *, *, #252, .F. ) ;
#83 = CONICAL_SURFACE ( 'NONE', #92, 1.200000000000003286, 0.7853981633974453924 ) ;
#84 = CARTESIAN_POINT ( 'NONE',  ( 1.772046959787181091E-14, -6.215504041505834086E-16, 5.075344210129247635 ) ) ;
#85 = ADVANCED_FACE ( 'NONE', ( #215, #258 ), #55, .T. ) ;
#86 = CARTESIAN_POINT ( 'NONE',  ( 3.491481338843132369E-16, -1.224646799147352498E-17, 0.09999999999999996392 ) ) ;
#87 = AXIS2_PLACEMENT_3D ( 'NONE', #273, #299, #23 ) ;
#88 = AXIS2_PLACEMENT_3D ( 'NONE', #144, #231, #162 ) ;
#89 = EDGE_CURVE ( 'NONE', #117, #117, #201, .T. ) ;
#90 = DIRECTION ( 'NONE',  ( 4.275831445896957731E-31, 1.000000000000000000, 1.224646799147352961E-16 ) ) ;
#91 = PERSON ( 'UNSPECIFIED', 'UNSPECIFIED', 'UNSPECIFIED', ('UNSPECIFIED'), ('UNSPECIFIED'), ('UNSPECIFIED') ) ;
#92 = AXIS2_PLACEMENT_3D ( 'NONE', #34, #14, #221 ) ;
#93 = PLANE ( 'NONE',  #177 ) ;
#94 = APPROVAL_PERSON_ORGANIZATION ( #154, #151, #243 ) ;
#95 = DIRECTION ( 'NONE',  ( 4.275831445896957731E-31, 1.000000000000000000, 1.224646799147353207E-16 ) ) ;
#96 = VERTEX_POINT ( 'NONE', #156 ) ;
#97 = ADVANCED_FACE ( 'NONE', ( #32 ), #123, .T. ) ;
#98 = DIRECTION ( 'NONE',  ( -4.275831445896957731E-31, -1.000000000000000000, -1.224646799147352961E-16 ) ) ;
#99 = FACE_OUTER_BOUND ( 'NONE', #194, .T. ) ;
#100 = EDGE_LOOP ( 'NONE', ( #189 ) ) ;
#101 = PERSON_AND_ORGANIZATION_ROLE ( 'creator' ) ;
#102 = ORIENTED_EDGE ( 'NONE', *, *, #256, .T. ) ;
#103 = CARTESIAN_POINT ( 'NONE',  ( -8.140434226980046386E-32, 2.855279966366324383E-33, -2.331513027555603605E-17 ) ) ;
#104 = ORIENTED_EDGE ( 'NONE', *, *, #89, .F. ) ;
#105 = CALENDAR_DATE ( 2021, 29, 11 ) ;
#106 = FACE_BOUND ( 'NONE', #279, .T. ) ;
#107 = ORIENTED_EDGE ( 'NONE', *, *, #184, .F. ) ;
#108 = CC_DESIGN_PERSON_AND_ORGANIZATION_ASSIGNMENT ( #223, #18, ( #176 ) ) ;
#109 = EDGE_LOOP ( 'NONE', ( #102 ) ) ;
#110 = APPLICATION_PROTOCOL_DEFINITION ( 'international standard', 'config_control_design', 1994, #266 ) ;
#111 = EDGE_LOOP ( 'NONE', ( #195 ) ) ;
#112 = PRODUCT ( '200031', '200031', '', ( #267 ) ) ;
#113 = SECURITY_CLASSIFICATION_LEVEL ( 'unclassified' ) ;
#114 = DIRECTION ( 'NONE',  ( 0.0000000000000000000, 1.000000000000000000, 0.0000000000000000000 ) ) ;
#115 = COORDINATED_UNIVERSAL_TIME_OFFSET ( 1, 0, .AHEAD. ) ;
#116 = ADVANCED_FACE ( 'NONE', ( #76, #255 ), #124, .T. ) ;
#117 = VERTEX_POINT ( 'NONE', #66 ) ;
#118 = DIRECTION ( 'NONE',  ( 4.275831445896957731E-31, 1.000000000000000000, 1.224646799147352961E-16 ) ) ;
#119 = DIRECTION ( 'NONE',  ( 4.275831445896957731E-31, 1.000000000000000000, 1.224646799147352961E-16 ) ) ;
#120 = DIRECTION ( 'NONE',  ( 3.491481338843133355E-15, -1.224646799147352961E-16, 1.000000000000000000 ) ) ;
#121 = AXIS2_PLACEMENT_3D ( 'NONE', #4, #278, #167 ) ;
#122 = CLOSED_SHELL ( 'NONE', ( #60, #180, #85, #30, #116, #15, #136, #295 ) ) ;
#123 = PLANE ( 'NONE',  #20 ) ;
#124 = CONICAL_SURFACE ( 'NONE', #197, 1.499999999999997335, 0.1745329251994260922 ) ;
#125 = DIRECTION ( 'NONE',  ( -3.491481338843133355E-15, 1.224646799147352961E-16, -1.000000000000000000 ) ) ;
#126 = CC_DESIGN_PERSON_AND_ORGANIZATION_ASSIGNMENT ( #41, #165, ( #217 ) ) ;
#127 = APPROVAL_PERSON_ORGANIZATION ( #171, #270, #146 ) ;
#128 = CALENDAR_DATE ( 2021, 29, 11 ) ;
#129 = FACE_OUTER_BOUND ( 'NONE', #28, .T. ) ;
#130 = EDGE_CURVE ( 'NONE', #96, #96, #210, .T. ) ;
#131 = DIRECTION ( 'NONE',  ( 0.0000000000000000000, 1.000000000000000000, 0.0000000000000000000 ) ) ;
#132 = EDGE_LOOP ( 'NONE', ( #17 ) ) ;
#133 = AXIS2_PLACEMENT_3D ( 'NONE', #138, #46, #296 ) ;
#134 = AXIS2_PLACEMENT_3D ( 'NONE', #274, #212, #81 ) ;
#135 = ORIENTED_EDGE ( 'NONE', *, *, #252, .T. ) ;
#136 = ADVANCED_FACE ( 'NONE', ( #147, #233 ), #83, .T. ) ;
#137 = DATE_AND_TIME ( #153, #8 ) ;
#138 = CARTESIAN_POINT ( 'NONE',  ( 1.745740669421566678E-14, -6.123233995736765296E-16, 5.000000000000000000 ) ) ;
#139 = CARTESIAN_POINT ( 'NONE',  ( 3.142333204958820020E-14, 0.3949999999999990741, 9.000000000000000000 ) ) ;
#140 = CIRCLE ( 'NONE', #264, 0.3950000000000001843 ) ;
#141 = CARTESIAN_POINT ( 'NONE',  ( 1.772046959787181091E-14, 0.3949999999999989075, 5.075344210129247635 ) ) ;
#142 = CYLINDRICAL_SURFACE ( 'NONE', #52, 1.500000000000000444 ) ;
#143 = DATE_AND_TIME ( #49, #247 ) ;
#144 = CARTESIAN_POINT ( 'NONE',  ( 0.0000000000000000000, 0.0000000000000000000, 0.0000000000000000000 ) ) ;
#145 = DIRECTION ( 'NONE',  ( -3.491481338843133355E-15, 1.224646799147352961E-16, -1.000000000000000000 ) ) ;
#146 = APPROVAL_ROLE ( '' ) ;
#147 = FACE_OUTER_BOUND ( 'NONE', #192, .T. ) ;
#148 = EDGE_LOOP ( 'NONE', ( #286 ) ) ;
#149 = AXIS2_PLACEMENT_3D ( 'NONE', #169, #145, #29 ) ;
#150 = CIRCLE ( 'NONE', #78, 1.499999999999997335 ) ;
#151 = APPROVAL ( #268, 'UNSPECIFIED' ) ;
#152 = ORIENTED_EDGE ( 'NONE', *, *, #130, .T. ) ;
#153 = CALENDAR_DATE ( 2021, 29, 11 ) ;
#154 = PERSON_AND_ORGANIZATION ( #91, #200 ) ;
#155 = CC_DESIGN_DATE_AND_TIME_ASSIGNMENT ( #5, #178, ( #43 ) ) ;
#156 = CARTESIAN_POINT ( 'NONE',  ( 3.263591079328455776E-14, 0.4253844939755800914, 9.347296355333845952 ) ) ;
#157 = MANIFOLD_SOLID_BREP ( 'Corps-Déplacer/Copier1[2]', #280 ) ;
#158 = LOCAL_TIME ( 15, 49, 21.00000000000000000, #281 ) ;
#159 = VERTEX_POINT ( 'NONE', #141 ) ;
#160 = FACE_OUTER_BOUND ( 'NONE', #111, .T. ) ;
#161 = CARTESIAN_POINT ( 'NONE',  ( 1.745740669421566678E-14, 3.288223323486112049E-33, 5.000000000000000000 ) ) ;
#162 = DIRECTION ( 'NONE',  ( 4.275831445896957731E-31, 1.000000000000000000, 1.224646799147352714E-16 ) ) ;
#163 = CALENDAR_DATE ( 2021, 29, 11 ) ;
#164 = CC_DESIGN_SECURITY_CLASSIFICATION ( #217, ( #176 ) ) ;
#165 = PERSON_AND_ORGANIZATION_ROLE ( 'classification_officer' ) ;
#166 = CIRCLE ( 'NONE', #248, 0.3807649730810376276 ) ;
#167 = DIRECTION ( 'NONE',  ( 0.0000000000000000000, 1.000000000000000000, 0.0000000000000000000 ) ) ;
#168 = EDGE_LOOP ( 'NONE', ( #53 ) ) ;
#169 = CARTESIAN_POINT ( 'NONE',  ( 3.491481338843132369E-16, -1.224646799147352498E-17, 0.09999999999999996392 ) ) ;
#170 = ORIENTED_EDGE ( 'NONE', *, *, #283, .F. ) ;
#171 = PERSON_AND_ORGANIZATION ( #91, #200 ) ;
#172 = DIRECTION ( 'NONE',  ( 0.0000000000000000000, 1.000000000000000000, 0.0000000000000000000 ) ) ;
#173 = ORIENTED_EDGE ( 'NONE', *, *, #75, .T. ) ;
#174 = CYLINDRICAL_SURFACE ( 'NONE', #61, 0.4384999999999996678 ) ;
#175 = CC_DESIGN_PERSON_AND_ORGANIZATION_ASSIGNMENT ( #242, #188, ( #112 ) ) ;
#176 = PRODUCT_DEFINITION_FORMATION_WITH_SPECIFIED_SOURCE ( 'ANY', '', #112, .NOT_KNOWN. ) ;
#177 = AXIS2_PLACEMENT_3D ( 'NONE', #183, #68, #119 ) ;
#178 = DATE_TIME_ROLE ( 'creation_date' ) ;
#179 = DIRECTION ( 'NONE',  ( -4.392086532239997039E-31, -1.000000000000000000, -1.236262454373439039E-16 ) ) ;
#180 = ADVANCED_FACE ( 'NONE', ( #129, #106 ), #71, .T. ) ;
#181 = VERTEX_POINT ( 'NONE', #25 ) ;
#182 = CIRCLE ( 'NONE', #133, 0.4385000000000000009 ) ;
#183 = CARTESIAN_POINT ( 'NONE',  ( 1.326762908760390423E-13, 8.998558695971099120E-33, 38.00000000000000000 ) ) ;
#184 = EDGE_CURVE ( 'NONE', #21, #21, #150, .T. ) ;
#185 = FACE_OUTER_BOUND ( 'NONE', #7, .T. ) ;
#186 = DIRECTION ( 'NONE',  ( 3.491481338843133355E-15, -1.224646799147352961E-16, 1.000000000000000000 ) ) ;
#187 = DIRECTION ( 'NONE',  ( -3.491481338843133355E-15, 1.224646799147352961E-16, -1.000000000000000000 ) ) ;
#188 = PERSON_AND_ORGANIZATION_ROLE ( 'design_owner' ) ;
#189 = ORIENTED_EDGE ( 'NONE', *, *, #65, .T. ) ;
#190 = DIRECTION ( 'NONE',  ( 3.491481338843133355E-15, -1.224646799147352961E-16, 1.000000000000000000 ) ) ;
#191 = CIRCLE ( 'NONE', #87, 1.500000000000003331 ) ;
#192 = EDGE_LOOP ( 'NONE', ( #82 ) ) ;
#193 = CIRCLE ( 'NONE', #12, 1.200000000000003286 ) ;
#194 = EDGE_LOOP ( 'NONE', ( #35 ) ) ;
#195 = ORIENTED_EDGE ( 'NONE', *, *, #75, .F. ) ;
#196 = DIRECTION ( 'NONE',  ( -3.491481338843133355E-15, 1.224646799147352961E-16, -1.000000000000000000 ) ) ;
#197 = AXIS2_PLACEMENT_3D ( 'NONE', #232, #190, #31 ) ;
#198 = EDGE_LOOP ( 'NONE', ( #135 ) ) ;
#199 = FACE_OUTER_BOUND ( 'NONE', #234, .T. ) ;
#200 = ORGANIZATION ( 'UNSPECIFIED', 'UNSPECIFIED', '' ) ;
#201 = CIRCLE ( 'NONE', #149, 0.4384999999999993903 ) ;
#202 = FACE_OUTER_BOUND ( 'NONE', #3, .T. ) ;
#203 = CARTESIAN_POINT ( 'NONE',  ( 3.142333204958820020E-14, -1.102182119232617517E-15, 9.000000000000000000 ) ) ;
#204 = AXIS2_PLACEMENT_3D ( 'NONE', #235, #19, #131 ) ;
#205 = APPROVAL_PERSON_ORGANIZATION ( #228, #79, #251 ) ;
#206 = CARTESIAN_POINT ( 'NONE',  ( 0.0000000000000000000, 0.0000000000000000000, 0.0000000000000000000 ) ) ;
#207 = VERTEX_POINT ( 'NONE', #44 ) ;
#208 = DIRECTION ( 'NONE',  ( -4.275831445896957731E-31, -1.000000000000000000, -1.224646799147352961E-16 ) ) ;
#209 = COORDINATED_UNIVERSAL_TIME_OFFSET ( 1, 0, .AHEAD. ) ;
#210 = CIRCLE ( 'NONE', #121, 0.4253844939755812016 ) ;
#211 = EDGE_CURVE ( 'NONE', #159, #159, #272, .T. ) ;
#212 = DIRECTION ( 'NONE',  ( -3.491481338843133355E-15, 1.224646799147352961E-16, -1.000000000000000000 ) ) ;
#213 = DIRECTION ( 'NONE',  ( 0.0000000000000000000, 1.000000000000000000, 0.0000000000000000000 ) ) ;
#214 = APPROVAL_DATE_TIME ( #143, #79 ) ;
#215 = FACE_OUTER_BOUND ( 'NONE', #132, .T. ) ;
#216 = AXIS2_PLACEMENT_3D ( 'NONE', #84, #196, #114 ) ;
#217 = SECURITY_CLASSIFICATION ( '', '', #113 ) ;
#218 = EDGE_LOOP ( 'NONE', ( #152 ) ) ;
#219 = DATE_TIME_ROLE ( 'classification_date' ) ;
#220 = AXIS2_PLACEMENT_3D ( 'NONE', #161, #186, #208 ) ;
#221 = DIRECTION ( 'NONE',  ( 0.0000000000000000000, 1.000000000000000000, 0.0000000000000000000 ) ) ;
#222 = EDGE_LOOP ( 'NONE', ( #293 ) ) ;
#223 = PERSON_AND_ORGANIZATION ( #91, #200 ) ;
#224 = ADVANCED_FACE ( 'NONE', ( #202, #37 ), #174, .T. ) ;
#225 = VERTEX_POINT ( 'NONE', #226 ) ;
#226 = CARTESIAN_POINT ( 'NONE',  ( 1.745740669421566678E-14, 0.4384999999999993903, 5.000000000000000000 ) ) ;
#227 = VERTEX_POINT ( 'NONE', #271 ) ;
#228 = PERSON_AND_ORGANIZATION ( #91, #200 ) ;
#229 = PERSON_AND_ORGANIZATION ( #91, #200 ) ;
#230 = ADVANCED_FACE ( 'NONE', ( #239, #263 ), #297, .T. ) ;
#231 = DIRECTION ( 'NONE',  ( -3.491481338843133355E-15, 1.224646799147352961E-16, -1.000000000000000000 ) ) ;
#232 = CARTESIAN_POINT ( 'NONE',  ( 5.391456009948087605E-14, -1.891068204166429326E-15, 15.44174373772964692 ) ) ;
#233 = FACE_BOUND ( 'NONE', #240, .T. ) ;
#234 = EDGE_LOOP ( 'NONE', ( #107 ) ) ;
#235 = CARTESIAN_POINT ( 'NONE',  ( 1.772046959787181091E-14, -6.215504041505834086E-16, 5.075344210129247635 ) ) ;
#236 = ORIENTED_EDGE ( 'NONE', *, *, #130, .F. ) ;
#237 = SHAPE_DEFINITION_REPRESENTATION ( #26, #80 ) ;
#238 = DESIGN_CONTEXT ( 'detailed design', #292, 'design' ) ;
#239 = FACE_BOUND ( 'NONE', #282, .T. ) ;
#240 = EDGE_LOOP ( 'NONE', ( #173 ) ) ;
#241 = PERSON_AND_ORGANIZATION_ROLE ( 'creator' ) ;
#242 = PERSON_AND_ORGANIZATION ( #91, #200 ) ;
#243 = APPROVAL_ROLE ( '' ) ;
#244 = ORIENTED_EDGE ( 'NONE', *, *, #283, .T. ) ;
#245 = CC_DESIGN_APPROVAL ( #270, ( #217 ) ) ;
#246 = CARTESIAN_POINT ( 'NONE',  ( 5.391456009948087605E-14, 1.499999999999995559, 15.44174373772964692 ) ) ;
#247 = LOCAL_TIME ( 15, 49, 21.00000000000000000, #209 ) ;
#248 = AXIS2_PLACEMENT_3D ( 'NONE', #27, #125, #118 ) ;
#249 = DIRECTION ( 'NONE',  ( -3.491481338843133355E-15, 1.224646799147352961E-16, -1.000000000000000000 ) ) ;
#250 =( NAMED_UNIT ( * ) PLANE_ANGLE_UNIT ( ) SI_UNIT ( $, .RADIAN. ) );
#251 = APPROVAL_ROLE ( '' ) ;
#252 = EDGE_CURVE ( 'NONE', #207, #207, #191, .T. ) ;
#253 = FACE_OUTER_BOUND ( 'NONE', #148, .T. ) ;
#254 = LOCAL_TIME ( 15, 49, 21.00000000000000000, #13 ) ;
#255 = FACE_OUTER_BOUND ( 'NONE', #168, .T. ) ;
#256 = EDGE_CURVE ( 'NONE', #42, #42, #140, .T. ) ;
#257 = DIRECTION ( 'NONE',  ( -4.275831445896957731E-31, -1.000000000000000000, -1.224646799147352961E-16 ) ) ;
#258 = FACE_OUTER_BOUND ( 'NONE', #109, .T. ) ;
#259 = APPROVAL_STATUS ( 'not_yet_approved' ) ;
#260 = DIRECTION ( 'NONE',  ( -3.491481338843133355E-15, 1.224646799147352961E-16, -1.000000000000000000 ) ) ;
#261 = CC_DESIGN_PERSON_AND_ORGANIZATION_ASSIGNMENT ( #229, #101, ( #43 ) ) ;
#262 = APPROVAL_DATE_TIME ( #137, #151 ) ;
#263 = FACE_OUTER_BOUND ( 'NONE', #222, .T. ) ;
#264 = AXIS2_PLACEMENT_3D ( 'NONE', #203, #70, #294 ) ;
#265 =( NAMED_UNIT ( * ) SI_UNIT ( $, .STERADIAN. ) SOLID_ANGLE_UNIT ( ) );
#266 = APPLICATION_CONTEXT ( 'configuration controlled 3d designs of mechanical parts and assemblies' ) ;
#267 = MECHANICAL_CONTEXT ( 'NONE', #266, 'mechanical' ) ;
#268 = APPROVAL_STATUS ( 'not_yet_approved' ) ;
#269 = CARTESIAN_POINT ( 'NONE',  ( 1.745740669421566678E-14, 0.4384999999999993903, 5.000000000000000000 ) ) ;
#270 = APPROVAL ( #259, 'UNSPECIFIED' ) ;
#271 = CARTESIAN_POINT ( 'NONE',  ( 0.0000000000000000000, 0.3807649730810376276, 0.0000000000000000000 ) ) ;
#272 = CIRCLE ( 'NONE', #216, 0.3949999999999995182 ) ;
#273 = CARTESIAN_POINT ( 'NONE',  ( 1.316288464743861212E-13, -4.616918432785520292E-15, 37.69999999999999574 ) ) ;
#274 = CARTESIAN_POINT ( 'NONE',  ( 3.142333204958820020E-14, -1.301042606982605321E-15, 9.000000000000000000 ) ) ;
#275 = DIRECTION ( 'NONE',  ( 3.491481338843133355E-15, -1.224646799147352961E-16, 1.000000000000000000 ) ) ;
#276 = APPLICATION_PROTOCOL_DEFINITION ( 'international standard', 'config_control_design', 1994, #292 ) ;
#277 = ORIENTED_EDGE ( 'NONE', *, *, #211, .T. ) ;
#278 = DIRECTION ( 'NONE',  ( -3.491481338843133355E-15, 1.224646799147352961E-16, -1.000000000000000000 ) ) ;
#279 = EDGE_LOOP ( 'NONE', ( #277 ) ) ;
#280 = CLOSED_SHELL ( 'NONE', ( #69, #230, #224, #97 ) ) ;
#281 = COORDINATED_UNIVERSAL_TIME_OFFSET ( 1, 0, .AHEAD. ) ;
#282 = EDGE_LOOP ( 'NONE', ( #1 ) ) ;
#283 = EDGE_CURVE ( 'NONE', #225, #225, #182, .T. ) ;
#284 = CARTESIAN_POINT ( 'NONE',  ( 5.391456009948087605E-14, -1.891068204166429326E-15, 15.44174373772964692 ) ) ;
#285 = DIRECTION ( 'NONE',  ( 0.0000000000000000000, 0.0000000000000000000, 1.000000000000000000 ) ) ;
#286 = ORIENTED_EDGE ( 'NONE', *, *, #45, .T. ) ;
#287 = CC_DESIGN_PERSON_AND_ORGANIZATION_ASSIGNMENT ( #36, #241, ( #176 ) ) ;
#288 = LOCAL_TIME ( 15, 49, 21.00000000000000000, #77 ) ;
#289 = DIRECTION ( 'NONE',  ( 1.000000000000000000, 0.0000000000000000000, 0.0000000000000000000 ) ) ;
#290 = AXIS2_PLACEMENT_3D ( 'NONE', #303, #249, #213 ) ;
#291 = CARTESIAN_POINT ( 'NONE',  ( 0.0000000000000000000, 0.0000000000000000000, 0.0000000000000000000 ) ) ;
#292 = APPLICATION_CONTEXT ( 'configuration controlled 3d designs of mechanical parts and assemblies' ) ;
#293 = ORIENTED_EDGE ( 'NONE', *, *, #89, .T. ) ;
#294 = DIRECTION ( 'NONE',  ( 0.0000000000000000000, 1.000000000000000000, 0.0000000000000000000 ) ) ;
#295 = ADVANCED_FACE ( 'NONE', ( #160 ), #93, .F. ) ;
#296 = DIRECTION ( 'NONE',  ( 0.0000000000000000000, 1.000000000000000000, 0.0000000000000000000 ) ) ;
#297 = CONICAL_SURFACE ( 'NONE', #9, 0.4384999999999993903, 0.5235987755982925984 ) ;
#298 =( LENGTH_UNIT ( ) NAMED_UNIT ( * ) SI_UNIT ( .MILLI., .METRE. ) );
#299 = DIRECTION ( 'NONE',  ( -3.491481338843133355E-15, 1.224646799147352961E-16, -1.000000000000000000 ) ) ;
#300 = DIRECTION ( 'NONE',  ( -3.491481338843133355E-15, 1.224646799147352961E-16, -1.000000000000000000 ) ) ;
#301 = VERTEX_POINT ( 'NONE', #269 ) ;
#302 = APPROVAL_STATUS ( 'not_yet_approved' ) ;
#303 = CARTESIAN_POINT ( 'NONE',  ( 1.745740669421566678E-14, -6.123233995736765296E-16, 5.000000000000000000 ) ) ;
ENDSEC;
END-ISO-10303-21;
