ISO-10303-21;
HEADER;
FILE_DESCRIPTION (( 'STEP AP203' ),
    '1' );
FILE_NAME ('200030.step',
    '2021-11-29T14:49:21',
    ( '' ),
    ( '' ),
    'SwSTEP 2.0',
    'SolidWorks 2019',
    '' );
FILE_SCHEMA (( 'CONFIG_CONTROL_DESIGN' ));
ENDSEC;

DATA;
#1 = DIRECTION ( 'NONE',  ( -3.491481338843133355E-15, 1.224646799147352961E-16, -1.000000000000000000 ) ) ;
#2 = CARTESIAN_POINT ( 'NONE',  ( 0.0000000000000000000, 0.0000000000000000000, 0.0000000000000000000 ) ) ;
#3 = ORIENTED_EDGE ( 'NONE', *, *, #99, .T. ) ;
#4 = ADVANCED_FACE ( 'NONE', ( #264, #210 ), #154, .T. ) ;
#5 = FACE_OUTER_BOUND ( 'NONE', #239, .T. ) ;
#6 = EDGE_LOOP ( 'NONE', ( #289 ) ) ;
#7 = CARTESIAN_POINT ( 'NONE',  ( 1.745740669421566678E-14, -6.123233995736765296E-16, 5.000000000000000000 ) ) ;
#8 = DIRECTION ( 'NONE',  ( -3.491481338843133355E-15, 1.224646799147352961E-16, -1.000000000000000000 ) ) ;
#9 = DIRECTION ( 'NONE',  ( -3.491481338843133355E-15, 1.224646799147352961E-16, -1.000000000000000000 ) ) ;
#10 = CC_DESIGN_DATE_AND_TIME_ASSIGNMENT ( #256, #49, ( #229 ) ) ;
#11 = FACE_OUTER_BOUND ( 'NONE', #215, .T. ) ;
#12 = AXIS2_PLACEMENT_3D ( 'NONE', #131, #303, #284 ) ;
#13 = AXIS2_PLACEMENT_3D ( 'NONE', #240, #1, #294 ) ;
#14 = FACE_OUTER_BOUND ( 'NONE', #259, .T. ) ;
#15 = PERSON_AND_ORGANIZATION_ROLE ( 'classification_officer' ) ;
#16 = EDGE_CURVE ( 'NONE', #182, #182, #224, .T. ) ;
#17 = VERTEX_POINT ( 'NONE', #110 ) ;
#18 = AXIS2_PLACEMENT_3D ( 'NONE', #244, #100, #199 ) ;
#19 = CIRCLE ( 'NONE', #228, 0.4334999999999999964 ) ;
#20 = APPROVAL ( #21, 'UNSPECIFIED' ) ;
#21 = APPROVAL_STATUS ( 'not_yet_approved' ) ;
#22 = CIRCLE ( 'NONE', #234, 0.3757649730810376787 ) ;
#23 = CIRCLE ( 'NONE', #13, 1.499999999999997335 ) ;
#24 = ORIENTED_EDGE ( 'NONE', *, *, #126, .F. ) ;
#25 = EDGE_LOOP ( 'NONE', ( #286 ) ) ;
#26 = PLANE ( 'NONE',  #139 ) ;
#27 = ADVANCED_FACE ( 'NONE', ( #219, #302 ), #178, .T. ) ;
#28 = EDGE_LOOP ( 'NONE', ( #241 ) ) ;
#29 = AXIS2_PLACEMENT_3D ( 'NONE', #63, #223, #217 ) ;
#30 = FACE_OUTER_BOUND ( 'NONE', #70, .T. ) ;
#31 = CARTESIAN_POINT ( 'NONE',  ( 3.491481338843132369E-16, -1.224646799147352498E-17, 0.09999999999999996392 ) ) ;
#32 = AXIS2_PLACEMENT_3D ( 'NONE', #242, #220, #263 ) ;
#33 = DIRECTION ( 'NONE',  ( 0.0000000000000000000, 1.000000000000000000, 0.0000000000000000000 ) ) ;
#34 = ORIENTED_EDGE ( 'NONE', *, *, #16, .F. ) ;
#35 = ADVANCED_FACE ( 'NONE', ( #261 ), #211, .T. ) ;
#36 = CARTESIAN_POINT ( 'NONE',  ( 1.745740669421566678E-14, 3.250729328919566704E-33, 5.000000000000000000 ) ) ;
#37 = DIRECTION ( 'NONE',  ( -3.491481338843133355E-15, 1.224646799147352961E-16, -1.000000000000000000 ) ) ;
#38 = APPROVAL_PERSON_ORGANIZATION ( #69, #20, #148 ) ;
#39 = FACE_BOUND ( 'NONE', #156, .T. ) ;
#40 = DATE_AND_TIME ( #245, #142 ) ;
#41 = CARTESIAN_POINT ( 'NONE',  ( 3.491481338843134341E-16, 0.4334999999999994413, 0.1000000000000000194 ) ) ;
#42 =( LENGTH_UNIT ( ) NAMED_UNIT ( * ) SI_UNIT ( .MILLI., .METRE. ) );
#43 = AXIS2_PLACEMENT_3D ( 'NONE', #153, #265, #60 ) ;
#44 = CARTESIAN_POINT ( 'NONE',  ( 1.745740669421566678E-14, 0.4334999999999994413, 5.000000000000000000 ) ) ;
#45 = AXIS2_PLACEMENT_3D ( 'NONE', #97, #285, #196 ) ;
#46 = CIRCLE ( 'NONE', #283, 0.4334999999999994413 ) ;
#47 = APPROVAL ( #201, 'UNSPECIFIED' ) ;
#48 = SECURITY_CLASSIFICATION_LEVEL ( 'unclassified' ) ;
#49 = DATE_TIME_ROLE ( 'creation_date' ) ;
#50 = TOROIDAL_SURFACE ( 'NONE', #32, 2.390000000000000124, 2.000000000000000000 ) ;
#51 = ORIENTED_EDGE ( 'NONE', *, *, #298, .F. ) ;
#52 = APPLICATION_PROTOCOL_DEFINITION ( 'international standard', 'config_control_design', 1994, #113 ) ;
#53 = CARTESIAN_POINT ( 'NONE',  ( 1.326762908760390423E-13, -4.653657836759941152E-15, 38.00000000000000000 ) ) ;
#54 = DIRECTION ( 'NONE',  ( 3.491481338843133355E-15, -1.224646799147352961E-16, 1.000000000000000000 ) ) ;
#55 = COORDINATED_UNIVERSAL_TIME_OFFSET ( 1, 0, .AHEAD. ) ;
#56 = ORIENTED_EDGE ( 'NONE', *, *, #86, .T. ) ;
#57 = DIRECTION ( 'NONE',  ( -3.491481338843133355E-15, 1.224646799147352961E-16, -1.000000000000000000 ) ) ;
#58 = APPROVAL ( #301, 'UNSPECIFIED' ) ;
#59 = DIRECTION ( 'NONE',  ( 3.491481338843133355E-15, -1.224646799147352961E-16, 1.000000000000000000 ) ) ;
#60 = DIRECTION ( 'NONE',  ( 0.0000000000000000000, 1.000000000000000000, 0.0000000000000000000 ) ) ;
#61 = FACE_OUTER_BOUND ( 'NONE', #179, .T. ) ;
#62 = PRODUCT_DEFINITION_FORMATION_WITH_SPECIFIED_SOURCE ( 'ANY', '', #225, .NOT_KNOWN. ) ;
#63 = CARTESIAN_POINT ( 'NONE',  ( 5.401356597268345407E-14, -1.894540862730158115E-15, 15.47010014682773615 ) ) ;
#64 = CARTESIAN_POINT ( 'NONE',  ( 1.316288464743861212E-13, 1.499999999999998668, 37.69999999999999574 ) ) ;
#65 = CC_DESIGN_PERSON_AND_ORGANIZATION_ASSIGNMENT ( #94, #192, ( #62 ) ) ;
#66 = APPROVAL_PERSON_ORGANIZATION ( #207, #58, #277 ) ;
#67 = AXIS2_PLACEMENT_3D ( 'NONE', #53, #76, #222 ) ;
#68 = PERSON_AND_ORGANIZATION_ROLE ( 'design_supplier' ) ;
#69 = PERSON_AND_ORGANIZATION ( #183, #191 ) ;
#70 = EDGE_LOOP ( 'NONE', ( #253 ) ) ;
#71 = PERSON_AND_ORGANIZATION ( #183, #191 ) ;
#72 = EDGE_LOOP ( 'NONE', ( #24 ) ) ;
#73 = PERSON_AND_ORGANIZATION ( #183, #191 ) ;
#74 = FACE_OUTER_BOUND ( 'NONE', #152, .T. ) ;
#75 = PLANE ( 'NONE',  #145 ) ;
#76 = DIRECTION ( 'NONE',  ( -3.491481338843133355E-15, 1.224646799147352961E-16, -1.000000000000000000 ) ) ;
#77 = CARTESIAN_POINT ( 'NONE',  ( 3.491481338843132369E-16, -1.224646799147352498E-17, 0.09999999999999996392 ) ) ;
#78 = ADVANCED_FACE ( 'NONE', ( #74, #171 ), #200, .T. ) ;
#79 = APPROVAL_DATE_TIME ( #40, #47 ) ;
#80 = EDGE_LOOP ( 'NONE', ( #190 ) ) ;
#81 = FACE_OUTER_BOUND ( 'NONE', #102, .T. ) ;
#82 = EDGE_LOOP ( 'NONE', ( #51 ) ) ;
#83 = CYLINDRICAL_SURFACE ( 'NONE', #18, 0.4334999999999997744 ) ;
#84 = DIRECTION ( 'NONE',  ( -3.491481338843133355E-15, 1.224646799147352961E-16, -1.000000000000000000 ) ) ;
#85 = CALENDAR_DATE ( 2021, 29, 11 ) ;
#86 = EDGE_CURVE ( 'NONE', #250, #250, #22, .T. ) ;
#87 = CLOSED_SHELL ( 'NONE', ( #121, #27, #238, #35 ) ) ;
#88 = AXIS2_PLACEMENT_3D ( 'NONE', #236, #8, #127 ) ;
#89 = PRODUCT_DEFINITION_SHAPE ( 'NONE', 'NONE',  #229 ) ;
#90 = PERSON_AND_ORGANIZATION_ROLE ( 'design_owner' ) ;
#91 = COORDINATED_UNIVERSAL_TIME_OFFSET ( 1, 0, .AHEAD. ) ;
#92 = ADVANCED_FACE ( 'NONE', ( #11 ), #106, .F. ) ;
#93 = ORIENTED_EDGE ( 'NONE', *, *, #86, .F. ) ;
#94 = PERSON_AND_ORGANIZATION ( #183, #191 ) ;
#95 = CC_DESIGN_APPROVAL ( #47, ( #262 ) ) ;
#96 = EDGE_LOOP ( 'NONE', ( #129 ) ) ;
#97 = CARTESIAN_POINT ( 'NONE',  ( 3.263591079328455776E-14, -1.144713656224131229E-15, 9.347296355333845952 ) ) ;
#98 = ORIENTED_EDGE ( 'NONE', *, *, #206, .F. ) ;
#99 = EDGE_CURVE ( 'NONE', #140, #140, #46, .T. ) ;
#100 = DIRECTION ( 'NONE',  ( -3.491481338843133355E-15, 1.224646799147352961E-16, -1.000000000000000000 ) ) ;
#101 = PERSON_AND_ORGANIZATION ( #183, #191 ) ;
#102 = EDGE_LOOP ( 'NONE', ( #56 ) ) ;
#103 = DIRECTION ( 'NONE',  ( -3.491481338843133355E-15, 1.224646799147352961E-16, -1.000000000000000000 ) ) ;
#104 = DIRECTION ( 'NONE',  ( 0.0000000000000000000, 1.000000000000000000, 0.0000000000000000000 ) ) ;
#105 = FACE_OUTER_BOUND ( 'NONE', #28, .T. ) ;
#106 = PLANE ( 'NONE',  #271 ) ;
#107 = DIRECTION ( 'NONE',  ( -3.491481338843133355E-15, 1.224646799147352961E-16, -1.000000000000000000 ) ) ;
#108 = APPROVAL_ROLE ( '' ) ;
#109 = AXIS2_PLACEMENT_3D ( 'NONE', #2, #282, #188 ) ;
#110 = CARTESIAN_POINT ( 'NONE',  ( 5.401356597268345407E-14, 1.499999999999995559, 15.47010014682773615 ) ) ;
#111 = EDGE_CURVE ( 'NONE', #246, #246, #160, .T. ) ;
#112 = CARTESIAN_POINT ( 'NONE',  ( 1.326762908760390423E-13, 1.199999999999998845, 38.00000000000000000 ) ) ;
#113 = APPLICATION_CONTEXT ( 'configuration controlled 3d designs of mechanical parts and assemblies' ) ;
#114 = ORIENTED_EDGE ( 'NONE', *, *, #216, .T. ) ;
#115 = LOCAL_TIME ( 15, 49, 21.00000000000000000, #55 ) ;
#116 =( NAMED_UNIT ( * ) SI_UNIT ( $, .STERADIAN. ) SOLID_ANGLE_UNIT ( ) );
#117 = DESIGN_CONTEXT ( 'detailed design', #113, 'design' ) ;
#118 = CC_DESIGN_PERSON_AND_ORGANIZATION_ASSIGNMENT ( #209, #90, ( #225 ) ) ;
#119 = CC_DESIGN_APPROVAL ( #58, ( #62 ) ) ;
#120 = CLOSED_SHELL ( 'NONE', ( #92, #181, #4, #161, #248, #172, #78, #254 ) ) ;
#121 = ADVANCED_FACE ( 'NONE', ( #81 ), #75, .F. ) ;
#122 = EDGE_LOOP ( 'NONE', ( #257 ) ) ;
#123 = DIRECTION ( 'NONE',  ( -4.442744969751414767E-31, -1.000000000000000000, -1.250521536892163567E-16 ) ) ;
#124 = CARTESIAN_POINT ( 'NONE',  ( 1.326762908760390423E-13, 8.998558695971099120E-33, 38.00000000000000000 ) ) ;
#125 = LOCAL_TIME ( 15, 49, 21.00000000000000000, #169 ) ;
#126 = EDGE_CURVE ( 'NONE', #137, #137, #19, .T. ) ;
#127 = DIRECTION ( 'NONE',  ( 4.275831445896957731E-31, 1.000000000000000000, 1.224646799147352961E-16 ) ) ;
#128 = DIRECTION ( 'NONE',  ( -4.275831445896957731E-31, -1.000000000000000000, -1.224646799147352961E-16 ) ) ;
#129 = ORIENTED_EDGE ( 'NONE', *, *, #111, .F. ) ;
#130 = FACE_OUTER_BOUND ( 'NONE', #266, .T. ) ;
#131 = CARTESIAN_POINT ( 'NONE',  ( 1.745740669421566678E-14, 3.250729328919566704E-33, 5.000000000000000000 ) ) ;
#132 = FACE_OUTER_BOUND ( 'NONE', #25, .T. ) ;
#133 = DIRECTION ( 'NONE',  ( 4.275831445896957731E-31, 1.000000000000000000, 1.224646799147352961E-16 ) ) ;
#134 = FACE_OUTER_BOUND ( 'NONE', #6, .T. ) ;
#135 = CC_DESIGN_DATE_AND_TIME_ASSIGNMENT ( #218, #288, ( #262 ) ) ;
#136 = COORDINATED_UNIVERSAL_TIME_OFFSET ( 1, 0, .AHEAD. ) ;
#137 = VERTEX_POINT ( 'NONE', #295 ) ;
#138 = EDGE_CURVE ( 'NONE', #17, #17, #23, .T. ) ;
#139 = AXIS2_PLACEMENT_3D ( 'NONE', #124, #212, #194 ) ;
#140 = VERTEX_POINT ( 'NONE', #41 ) ;
#141 =( NAMED_UNIT ( * ) PLANE_ANGLE_UNIT ( ) SI_UNIT ( $, .RADIAN. ) );
#142 = LOCAL_TIME ( 15, 49, 21.00000000000000000, #136 ) ;
#143 = VERTEX_POINT ( 'NONE', #299 ) ;
#144 = CIRCLE ( 'NONE', #43, 0.3899999999999999578 ) ;
#145 = AXIS2_PLACEMENT_3D ( 'NONE', #293, #54, #128 ) ;
#146 = COORDINATED_UNIVERSAL_TIME_OFFSET ( 1, 0, .AHEAD. ) ;
#147 = ORIENTED_EDGE ( 'NONE', *, *, #273, .F. ) ;
#148 = APPROVAL_ROLE ( '' ) ;
#149 = EDGE_LOOP ( 'NONE', ( #93 ) ) ;
#150 = CYLINDRICAL_SURFACE ( 'NONE', #281, 1.500000000000000444 ) ;
#151 = AXIS2_PLACEMENT_3D ( 'NONE', #175, #57, #290 ) ;
#152 = EDGE_LOOP ( 'NONE', ( #34 ) ) ;
#153 = CARTESIAN_POINT ( 'NONE',  ( 3.142333204958820020E-14, -1.102182119232617517E-15, 9.000000000000000000 ) ) ;
#154 = CYLINDRICAL_SURFACE ( 'NONE', #88, 0.3899999999999997358 ) ;
#155 = DIRECTION ( 'NONE',  ( 0.0000000000000000000, 1.000000000000000000, 0.0000000000000000000 ) ) ;
#156 = EDGE_LOOP ( 'NONE', ( #147 ) ) ;
#157 = CC_DESIGN_PERSON_AND_ORGANIZATION_ASSIGNMENT ( #170, #15, ( #262 ) ) ;
#158 = FACE_BOUND ( 'NONE', #80, .T. ) ;
#159 = CIRCLE ( 'NONE', #184, 0.3899999999999995692 ) ;
#160 = CIRCLE ( 'NONE', #204, 1.200000000000003286 ) ;
#161 = ADVANCED_FACE ( 'NONE', ( #61, #132 ), #50, .F. ) ;
#162 = LOCAL_TIME ( 15, 49, 21.00000000000000000, #91 ) ;
#163 = CARTESIAN_POINT ( 'NONE',  ( -2.138211768073756517E-47, 0.3757649730810376787, 0.0000000000000000000 ) ) ;
#164 = APPLICATION_CONTEXT ( 'configuration controlled 3d designs of mechanical parts and assemblies' ) ;
#165 = MANIFOLD_SOLID_BREP ( 'Corps-Déplacer/Copier1[2]', #87 ) ;
#166 = CALENDAR_DATE ( 2021, 29, 11 ) ;
#167 = CALENDAR_DATE ( 2021, 29, 11 ) ;
#168 = AXIS2_PLACEMENT_3D ( 'NONE', #177, #9, #268 ) ;
#169 = COORDINATED_UNIVERSAL_TIME_OFFSET ( 1, 0, .AHEAD. ) ;
#170 = PERSON_AND_ORGANIZATION ( #183, #191 ) ;
#171 = FACE_BOUND ( 'NONE', #122, .T. ) ;
#172 = ADVANCED_FACE ( 'NONE', ( #30, #130 ), #150, .T. ) ;
#173 = FACE_OUTER_BOUND ( 'NONE', #96, .T. ) ;
#174 = EDGE_LOOP ( 'NONE', ( #3 ) ) ;
#175 = CARTESIAN_POINT ( 'NONE',  ( 1.772046959787181091E-14, -6.215504041505834086E-16, 5.075344210129247635 ) ) ;
#176 = EDGE_LOOP ( 'NONE', ( #114 ) ) ;
#177 = CARTESIAN_POINT ( 'NONE',  ( 1.745740669421566678E-14, -6.123233995736765296E-16, 5.000000000000000000 ) ) ;
#178 = CONICAL_SURFACE ( 'NONE', #292, 0.4334999999999994413, 0.5235987755982925984 ) ;
#179 = EDGE_LOOP ( 'NONE', ( #279 ) ) ;
#180 = CARTESIAN_POINT ( 'NONE',  ( 0.0000000000000000000, 0.0000000000000000000, 0.0000000000000000000 ) ) ;
#181 = ADVANCED_FACE ( 'NONE', ( #14, #158 ), #296, .T. ) ;
#182 = VERTEX_POINT ( 'NONE', #64 ) ;
#183 = PERSON ( 'UNSPECIFIED', 'UNSPECIFIED', 'UNSPECIFIED', ('UNSPECIFIED'), ('UNSPECIFIED'), ('UNSPECIFIED') ) ;
#184 = AXIS2_PLACEMENT_3D ( 'NONE', #287, #103, #230 ) ;
#185 = PERSON_AND_ORGANIZATION_ROLE ( 'creator' ) ;
#186 = CIRCLE ( 'NONE', #45, 0.4203844939755814192 ) ;
#187 = APPROVAL_DATE_TIME ( #189, #20 ) ;
#188 = DIRECTION ( 'NONE',  ( 1.000000000000000000, 0.0000000000000000000, 0.0000000000000000000 ) ) ;
#189 = DATE_AND_TIME ( #208, #162 ) ;
#190 = ORIENTED_EDGE ( 'NONE', *, *, #298, .T. ) ;
#191 = ORGANIZATION ( 'UNSPECIFIED', 'UNSPECIFIED', '' ) ;
#192 = PERSON_AND_ORGANIZATION_ROLE ( 'creator' ) ;
#193 = ORIENTED_EDGE ( 'NONE', *, *, #126, .T. ) ;
#194 = DIRECTION ( 'NONE',  ( 4.275831445896957731E-31, 1.000000000000000000, 1.224646799147352961E-16 ) ) ;
#195 = ORIENTED_EDGE ( 'NONE', *, *, #206, .T. ) ;
#196 = DIRECTION ( 'NONE',  ( 0.0000000000000000000, 1.000000000000000000, 0.0000000000000000000 ) ) ;
#197 = ORIENTED_EDGE ( 'NONE', *, *, #16, .T. ) ;
#198 = DIRECTION ( 'NONE',  ( -3.491481338843133355E-15, 1.224646799147352961E-16, -1.000000000000000000 ) ) ;
#199 = DIRECTION ( 'NONE',  ( 4.275831445896957731E-31, 1.000000000000000000, 1.224646799147352961E-16 ) ) ;
#200 = CONICAL_SURFACE ( 'NONE', #67, 1.200000000000003286, 0.7853981633974453924 ) ;
#201 = APPROVAL_STATUS ( 'not_yet_approved' ) ;
#202 = DIRECTION ( 'NONE',  ( -4.275831445896957731E-31, -1.000000000000000000, -1.224646799147352961E-16 ) ) ;
#203 = VERTEX_POINT ( 'NONE', #297 ) ;
#204 = AXIS2_PLACEMENT_3D ( 'NONE', #235, #107, #33 ) ;
#205 = VERTEX_POINT ( 'NONE', #44 ) ;
#206 = EDGE_CURVE ( 'NONE', #205, #205, #221, .T. ) ;
#207 = PERSON_AND_ORGANIZATION ( #183, #191 ) ;
#208 = CALENDAR_DATE ( 2021, 29, 11 ) ;
#209 = PERSON_AND_ORGANIZATION ( #183, #191 ) ;
#210 = FACE_OUTER_BOUND ( 'NONE', #176, .T. ) ;
#211 = PLANE ( 'NONE',  #12 ) ;
#212 = DIRECTION ( 'NONE',  ( -3.491481338843133355E-15, 1.224646799147352961E-16, -1.000000000000000000 ) ) ;
#213 = CARTESIAN_POINT ( 'NONE',  ( 1.316288464743861212E-13, -4.616918432785520292E-15, 37.69999999999999574 ) ) ;
#214 = DIRECTION ( 'NONE',  ( 4.275831445896957731E-31, 1.000000000000000000, 1.224646799147353207E-16 ) ) ;
#215 = EDGE_LOOP ( 'NONE', ( #195 ) ) ;
#216 = EDGE_CURVE ( 'NONE', #203, #203, #144, .T. ) ;
#217 = DIRECTION ( 'NONE',  ( 0.0000000000000000000, -1.000000000000000000, 0.0000000000000000000 ) ) ;
#218 = DATE_AND_TIME ( #85, #115 ) ;
#219 = FACE_BOUND ( 'NONE', #149, .T. ) ;
#220 = DIRECTION ( 'NONE',  ( -3.491481338843133355E-15, 1.224646799147352961E-16, -1.000000000000000000 ) ) ;
#221 = CIRCLE ( 'NONE', #168, 0.4334999999999999964 ) ;
#222 = DIRECTION ( 'NONE',  ( 0.0000000000000000000, 1.000000000000000000, 0.0000000000000000000 ) ) ;
#223 = DIRECTION ( 'NONE',  ( 3.491481338843133355E-15, -1.224646799147352961E-16, 1.000000000000000000 ) ) ;
#224 = CIRCLE ( 'NONE', #258, 1.500000000000003331 ) ;
#225 = PRODUCT ( '200030', '200030', '', ( #274 ) ) ;
#226 = PRODUCT_RELATED_PRODUCT_CATEGORY ( 'detail', '', ( #225 ) ) ;
#227 = LOCAL_TIME ( 15, 49, 21.00000000000000000, #146 ) ;
#228 = AXIS2_PLACEMENT_3D ( 'NONE', #7, #198, #155 ) ;
#229 = PRODUCT_DEFINITION ( 'UNKNOWN', '', #62, #117 ) ;
#230 = DIRECTION ( 'NONE',  ( 0.0000000000000000000, 1.000000000000000000, 0.0000000000000000000 ) ) ;
#231 = CONICAL_SURFACE ( 'NONE', #29, 1.499999999999997335, 0.1745329251994260922 ) ;
#232 = UNCERTAINTY_MEASURE_WITH_UNIT (LENGTH_MEASURE( 1.000000000000000082E-05 ), #42, 'distance_accuracy_value', 'NONE');
#233 = DATE_AND_TIME ( #167, #227 ) ;
#234 = AXIS2_PLACEMENT_3D ( 'NONE', #243, #37, #133 ) ;
#235 = CARTESIAN_POINT ( 'NONE',  ( 1.326762908760390423E-13, -4.653657836759941152E-15, 38.00000000000000000 ) ) ;
#236 = CARTESIAN_POINT ( 'NONE',  ( 0.0000000000000000000, 0.0000000000000000000, 0.0000000000000000000 ) ) ;
#237 = DIRECTION ( 'NONE',  ( 3.491481338843133355E-15, -1.224646799147352961E-16, 1.000000000000000000 ) ) ;
#238 = ADVANCED_FACE ( 'NONE', ( #105, #5 ), #83, .T. ) ;
#239 = EDGE_LOOP ( 'NONE', ( #193 ) ) ;
#240 = CARTESIAN_POINT ( 'NONE',  ( 5.401356597268345407E-14, -1.894540862730158115E-15, 15.47010014682773615 ) ) ;
#241 = ORIENTED_EDGE ( 'NONE', *, *, #99, .F. ) ;
#242 = CARTESIAN_POINT ( 'NONE',  ( 3.142333204958820020E-14, -1.301042606982605321E-15, 9.000000000000000000 ) ) ;
#243 = CARTESIAN_POINT ( 'NONE',  ( -1.606707688166525001E-31, 5.635571943599556706E-33, -4.601793715153840301E-17 ) ) ;
#244 = CARTESIAN_POINT ( 'NONE',  ( 0.0000000000000000000, 0.0000000000000000000, 0.0000000000000000000 ) ) ;
#245 = CALENDAR_DATE ( 2021, 29, 11 ) ;
#246 = VERTEX_POINT ( 'NONE', #112 ) ;
#247 = CC_DESIGN_APPROVAL ( #20, ( #229 ) ) ;
#248 = ADVANCED_FACE ( 'NONE', ( #39, #134 ), #231, .T. ) ;
#249 = VERTEX_POINT ( 'NONE', #272 ) ;
#250 = VERTEX_POINT ( 'NONE', #163 ) ;
#251 = APPLICATION_PROTOCOL_DEFINITION ( 'international standard', 'config_control_design', 1994, #164 ) ;
#252 = CC_DESIGN_PERSON_AND_ORGANIZATION_ASSIGNMENT ( #71, #185, ( #229 ) ) ;
#253 = ORIENTED_EDGE ( 'NONE', *, *, #138, .F. ) ;
#254 = ADVANCED_FACE ( 'NONE', ( #173 ), #26, .F. ) ;
#255 = CC_DESIGN_SECURITY_CLASSIFICATION ( #262, ( #62 ) ) ;
#256 = DATE_AND_TIME ( #166, #125 ) ;
#257 = ORIENTED_EDGE ( 'NONE', *, *, #111, .T. ) ;
#258 = AXIS2_PLACEMENT_3D ( 'NONE', #213, #280, #104 ) ;
#259 = EDGE_LOOP ( 'NONE', ( #98 ) ) ;
#260 = DIRECTION ( 'NONE',  ( 4.442744969751414767E-31, 1.000000000000000000, 1.250521536892163567E-16 ) ) ;
#261 = FACE_OUTER_BOUND ( 'NONE', #72, .T. ) ;
#262 = SECURITY_CLASSIFICATION ( '', '', #48 ) ;
#263 = DIRECTION ( 'NONE',  ( 4.275831445896957731E-31, 1.000000000000000000, 1.224646799147352961E-16 ) ) ;
#264 = FACE_OUTER_BOUND ( 'NONE', #82, .T. ) ;
#265 = DIRECTION ( 'NONE',  ( -3.491481338843133355E-15, 1.224646799147352961E-16, -1.000000000000000000 ) ) ;
#266 = EDGE_LOOP ( 'NONE', ( #197 ) ) ;
#267 = DIRECTION ( 'NONE',  ( -3.491481338843133355E-15, 1.224646799147352961E-16, -1.000000000000000000 ) ) ;
#268 = DIRECTION ( 'NONE',  ( 0.0000000000000000000, 1.000000000000000000, 0.0000000000000000000 ) ) ;
#269 = ADVANCED_BREP_SHAPE_REPRESENTATION ( '200030', ( #270, #165, #109 ), #275 ) ;
#270 = MANIFOLD_SOLID_BREP ( 'Corps-Déplacer/Copier1[1]', #120 ) ;
#271 = AXIS2_PLACEMENT_3D ( 'NONE', #36, #237, #202 ) ;
#272 = CARTESIAN_POINT ( 'NONE',  ( 3.263591079328455776E-14, 0.4203844939755802534, 9.347296355333845952 ) ) ;
#273 = EDGE_CURVE ( 'NONE', #249, #249, #186, .T. ) ;
#274 = MECHANICAL_CONTEXT ( 'NONE', #164, 'mechanical' ) ;
#275 =( GEOMETRIC_REPRESENTATION_CONTEXT ( 3 ) GLOBAL_UNCERTAINTY_ASSIGNED_CONTEXT ( ( #232 ) ) GLOBAL_UNIT_ASSIGNED_CONTEXT ( ( #42, #141, #116 ) ) REPRESENTATION_CONTEXT ( 'NONE', 'WORKASPACE' ) );
#276 = APPROVAL_DATE_TIME ( #233, #58 ) ;
#277 = APPROVAL_ROLE ( '' ) ;
#278 = CC_DESIGN_PERSON_AND_ORGANIZATION_ASSIGNMENT ( #73, #68, ( #62 ) ) ;
#279 = ORIENTED_EDGE ( 'NONE', *, *, #216, .F. ) ;
#280 = DIRECTION ( 'NONE',  ( -3.491481338843133355E-15, 1.224646799147352961E-16, -1.000000000000000000 ) ) ;
#281 = AXIS2_PLACEMENT_3D ( 'NONE', #180, #84, #214 ) ;
#282 = DIRECTION ( 'NONE',  ( 0.0000000000000000000, 0.0000000000000000000, 1.000000000000000000 ) ) ;
#283 = AXIS2_PLACEMENT_3D ( 'NONE', #77, #267, #260 ) ;
#284 = DIRECTION ( 'NONE',  ( -4.275831445896957731E-31, -1.000000000000000000, -1.224646799147352961E-16 ) ) ;
#285 = DIRECTION ( 'NONE',  ( -3.491481338843133355E-15, 1.224646799147352961E-16, -1.000000000000000000 ) ) ;
#286 = ORIENTED_EDGE ( 'NONE', *, *, #273, .T. ) ;
#287 = CARTESIAN_POINT ( 'NONE',  ( 1.772046959787181091E-14, -6.215504041505834086E-16, 5.075344210129247635 ) ) ;
#288 = DATE_TIME_ROLE ( 'classification_date' ) ;
#289 = ORIENTED_EDGE ( 'NONE', *, *, #138, .T. ) ;
#290 = DIRECTION ( 'NONE',  ( 0.0000000000000000000, 1.000000000000000000, 0.0000000000000000000 ) ) ;
#291 = SHAPE_DEFINITION_REPRESENTATION ( #89, #269 ) ;
#292 = AXIS2_PLACEMENT_3D ( 'NONE', #31, #59, #123 ) ;
#293 = CARTESIAN_POINT ( 'NONE',  ( -8.033538440832625004E-32, 2.817785971799778353E-33, -2.300896857576920150E-17 ) ) ;
#294 = DIRECTION ( 'NONE',  ( 0.0000000000000000000, 1.000000000000000000, 0.0000000000000000000 ) ) ;
#295 = CARTESIAN_POINT ( 'NONE',  ( 1.745740669421566678E-14, 0.4334999999999994413, 5.000000000000000000 ) ) ;
#296 = CONICAL_SURFACE ( 'NONE', #151, 0.3899999999999995692, 0.5235987755982931535 ) ;
#297 = CARTESIAN_POINT ( 'NONE',  ( 3.142333204958820020E-14, 0.3899999999999988476, 9.000000000000000000 ) ) ;
#298 = EDGE_CURVE ( 'NONE', #143, #143, #159, .T. ) ;
#299 = CARTESIAN_POINT ( 'NONE',  ( 1.772046959787181091E-14, 0.3899999999999989586, 5.075344210129247635 ) ) ;
#300 = APPROVAL_PERSON_ORGANIZATION ( #101, #47, #108 ) ;
#301 = APPROVAL_STATUS ( 'not_yet_approved' ) ;
#302 = FACE_OUTER_BOUND ( 'NONE', #174, .T. ) ;
#303 = DIRECTION ( 'NONE',  ( 3.491481338843133355E-15, -1.224646799147352961E-16, 1.000000000000000000 ) ) ;
ENDSEC;
END-ISO-10303-21;
