ISO-10303-21;
HEADER;
FILE_DESCRIPTION (( 'STEP AP203' ),
    '1' );
FILE_NAME ('200029.step',
    '2021-11-29T14:49:20',
    ( '' ),
    ( '' ),
    'SwSTEP 2.0',
    'SolidWorks 2019',
    '' );
FILE_SCHEMA (( 'CONFIG_CONTROL_DESIGN' ));
ENDSEC;

DATA;
#1 = APPROVAL_DATE_TIME ( #51, #113 ) ;
#2 = DIRECTION ( 'NONE',  ( 0.0000000000000000000, 1.000000000000000000, 0.0000000000000000000 ) ) ;
#3 = DIRECTION ( 'NONE',  ( -3.491481338843133355E-15, 1.224646799147352961E-16, -1.000000000000000000 ) ) ;
#4 = CARTESIAN_POINT ( 'NONE',  ( 0.0000000000000000000, 0.0000000000000000000, 0.0000000000000000000 ) ) ;
#5 = PERSON_AND_ORGANIZATION ( #253, #36 ) ;
#6 = DIRECTION ( 'NONE',  ( 4.275831445896957731E-31, 1.000000000000000000, 1.224646799147352961E-16 ) ) ;
#7 = EDGE_LOOP ( 'NONE', ( #268 ) ) ;
#8 = EDGE_LOOP ( 'NONE', ( #54 ) ) ;
#9 = CIRCLE ( 'NONE', #98, 1.200000000000003286 ) ;
#10 = FACE_BOUND ( 'NONE', #49, .T. ) ;
#11 = FACE_OUTER_BOUND ( 'NONE', #29, .T. ) ;
#12 = CIRCLE ( 'NONE', #288, 0.4184999999999999831 ) ;
#13 = EDGE_CURVE ( 'NONE', #294, #294, #28, .T. ) ;
#14 = DIRECTION ( 'NONE',  ( -3.491481338843133355E-15, 1.224646799147352961E-16, -1.000000000000000000 ) ) ;
#15 = CC_DESIGN_PERSON_AND_ORGANIZATION_ASSIGNMENT ( #173, #141, ( #267 ) ) ;
#16 = VERTEX_POINT ( 'NONE', #181 ) ;
#17 = CC_DESIGN_PERSON_AND_ORGANIZATION_ASSIGNMENT ( #149, #75, ( #223 ) ) ;
#18 = AXIS2_PLACEMENT_3D ( 'NONE', #59, #174, #164 ) ;
#19 = CIRCLE ( 'NONE', #129, 0.4184999999999999831 ) ;
#20 = CALENDAR_DATE ( 2021, 29, 11 ) ;
#21 = EDGE_LOOP ( 'NONE', ( #291 ) ) ;
#22 = APPROVAL_STATUS ( 'not_yet_approved' ) ;
#23 = CARTESIAN_POINT ( 'NONE',  ( 0.0000000000000000000, 0.0000000000000000000, 0.0000000000000000000 ) ) ;
#24 = DIRECTION ( 'NONE',  ( 3.491481338843133355E-15, -1.224646799147352961E-16, 1.000000000000000000 ) ) ;
#25 = CC_DESIGN_PERSON_AND_ORGANIZATION_ASSIGNMENT ( #5, #163, ( #82 ) ) ;
#26 = APPLICATION_PROTOCOL_DEFINITION ( 'international standard', 'config_control_design', 1994, #93 ) ;
#27 = FACE_OUTER_BOUND ( 'NONE', #243, .T. ) ;
#28 = CIRCLE ( 'NONE', #198, 0.3749999999999995004 ) ;
#29 = EDGE_LOOP ( 'NONE', ( #147 ) ) ;
#30 = ORIENTED_EDGE ( 'NONE', *, *, #44, .T. ) ;
#31 = DIRECTION ( 'NONE',  ( -3.491481338843133355E-15, 1.224646799147352961E-16, -1.000000000000000000 ) ) ;
#32 = DIRECTION ( 'NONE',  ( 0.0000000000000000000, 1.000000000000000000, 0.0000000000000000000 ) ) ;
#33 = EDGE_LOOP ( 'NONE', ( #189 ) ) ;
#34 = ADVANCED_FACE ( 'NONE', ( #142, #191 ), #150, .T. ) ;
#35 = DIRECTION ( 'NONE',  ( 0.0000000000000000000, 1.000000000000000000, 0.0000000000000000000 ) ) ;
#36 = ORGANIZATION ( 'UNSPECIFIED', 'UNSPECIFIED', '' ) ;
#37 = FACE_BOUND ( 'NONE', #77, .T. ) ;
#38 = ADVANCED_FACE ( 'NONE', ( #271 ), #261, .T. ) ;
#39 = VERTEX_POINT ( 'NONE', #134 ) ;
#40 = LOCAL_TIME ( 15, 49, 20.00000000000000000, #234 ) ;
#41 = LOCAL_TIME ( 15, 49, 20.00000000000000000, #260 ) ;
#42 = DIRECTION ( 'NONE',  ( 0.0000000000000000000, 1.000000000000000000, 0.0000000000000000000 ) ) ;
#43 =( NAMED_UNIT ( * ) SI_UNIT ( $, .STERADIAN. ) SOLID_ANGLE_UNIT ( ) );
#44 = EDGE_CURVE ( 'NONE', #160, #160, #83, .T. ) ;
#45 = CARTESIAN_POINT ( 'NONE',  ( 1.745740669421566678E-14, 0.4184999999999993725, 5.000000000000000000 ) ) ;
#46 = AXIS2_PLACEMENT_3D ( 'NONE', #269, #57, #151 ) ;
#47 = APPROVAL_ROLE ( '' ) ;
#48 = CC_DESIGN_SECURITY_CLASSIFICATION ( #267, ( #223 ) ) ;
#49 = EDGE_LOOP ( 'NONE', ( #102 ) ) ;
#50 = ADVANCED_FACE ( 'NONE', ( #214, #127 ), #145, .T. ) ;
#51 = DATE_AND_TIME ( #211, #201 ) ;
#52 = APPROVAL_ROLE ( '' ) ;
#53 = EDGE_LOOP ( 'NONE', ( #111 ) ) ;
#54 = ORIENTED_EDGE ( 'NONE', *, *, #177, .F. ) ;
#55 = AXIS2_PLACEMENT_3D ( 'NONE', #262, #259, #143 ) ;
#56 = EDGE_LOOP ( 'NONE', ( #216 ) ) ;
#57 = DIRECTION ( 'NONE',  ( 3.491481338843133355E-15, -1.224646799147352961E-16, 1.000000000000000000 ) ) ;
#58 = DIRECTION ( 'NONE',  ( -4.275831445896957731E-31, -1.000000000000000000, -1.224646799147352961E-16 ) ) ;
#59 = CARTESIAN_POINT ( 'NONE',  ( 0.0000000000000000000, 0.0000000000000000000, 0.0000000000000000000 ) ) ;
#60 = FACE_OUTER_BOUND ( 'NONE', #56, .T. ) ;
#61 = AXIS2_PLACEMENT_3D ( 'NONE', #125, #221, #100 ) ;
#62 = ADVANCED_FACE ( 'NONE', ( #78 ), #92, .F. ) ;
#63 = CARTESIAN_POINT ( 'NONE',  ( 1.326762908760390423E-13, 8.998558695971099120E-33, 38.00000000000000000 ) ) ;
#64 = ADVANCED_BREP_SHAPE_REPRESENTATION ( '200029', ( #184, #81, #55 ), #244 ) ;
#65 = CARTESIAN_POINT ( 'NONE',  ( 3.263591079328455776E-14, 0.4053844939755804622, 9.347296355333845952 ) ) ;
#66 = EDGE_LOOP ( 'NONE', ( #30 ) ) ;
#67 = APPROVAL_STATUS ( 'not_yet_approved' ) ;
#68 = EDGE_LOOP ( 'NONE', ( #120 ) ) ;
#69 = PERSON_AND_ORGANIZATION ( #253, #36 ) ;
#70 = DIRECTION ( 'NONE',  ( -3.491481338843133355E-15, 1.224646799147352961E-16, -1.000000000000000000 ) ) ;
#71 = DIRECTION ( 'NONE',  ( -4.275831445896957731E-31, -1.000000000000000000, -1.224646799147352961E-16 ) ) ;
#72 = AXIS2_PLACEMENT_3D ( 'NONE', #131, #248, #158 ) ;
#73 = EDGE_LOOP ( 'NONE', ( #219 ) ) ;
#74 = CLOSED_SHELL ( 'NONE', ( #62, #251, #50, #38 ) ) ;
#75 = PERSON_AND_ORGANIZATION_ROLE ( 'design_supplier' ) ;
#76 = APPROVAL_PERSON_ORGANIZATION ( #122, #130, #52 ) ;
#77 = EDGE_LOOP ( 'NONE', ( #237 ) ) ;
#78 = FACE_OUTER_BOUND ( 'NONE', #21, .T. ) ;
#79 = ADVANCED_FACE ( 'NONE', ( #285, #263 ), #106, .F. ) ;
#80 = CARTESIAN_POINT ( 'NONE',  ( 1.772046959787181091E-14, 0.3749999999999989453, 5.075344210129247635 ) ) ;
#81 = MANIFOLD_SOLID_BREP ( 'Corps-Déplacer/Copier1[2]', #74 ) ;
#82 = PRODUCT_DEFINITION ( 'UNKNOWN', '', #223, #246 ) ;
#83 = CIRCLE ( 'NONE', #84, 0.3750000000000001110 ) ;
#84 = AXIS2_PLACEMENT_3D ( 'NONE', #117, #152, #35 ) ;
#85 =( NAMED_UNIT ( * ) PLANE_ANGLE_UNIT ( ) SI_UNIT ( $, .RADIAN. ) );
#86 = ORIENTED_EDGE ( 'NONE', *, *, #13, .F. ) ;
#87 = PRODUCT_RELATED_PRODUCT_CATEGORY ( 'detail', '', ( #227 ) ) ;
#88 = DATE_TIME_ROLE ( 'creation_date' ) ;
#89 = DIRECTION ( 'NONE',  ( 0.0000000000000000000, 1.000000000000000000, 0.0000000000000000000 ) ) ;
#90 = ORIENTED_EDGE ( 'NONE', *, *, #293, .T. ) ;
#91 = DIRECTION ( 'NONE',  ( 4.275831445896958607E-31, 1.000000000000000000, 1.224646799147352961E-16 ) ) ;
#92 = PLANE ( 'NONE',  #254 ) ;
#93 = APPLICATION_CONTEXT ( 'configuration controlled 3d designs of mechanical parts and assemblies' ) ;
#94 = DATE_AND_TIME ( #270, #250 ) ;
#95 = ADVANCED_FACE ( 'NONE', ( #11, #209 ), #231, .T. ) ;
#96 = EDGE_LOOP ( 'NONE', ( #241 ) ) ;
#97 = CARTESIAN_POINT ( 'NONE',  ( 1.772046959787181091E-14, -6.215504041505834086E-16, 5.075344210129247635 ) ) ;
#98 = AXIS2_PLACEMENT_3D ( 'NONE', #295, #226, #42 ) ;
#99 = EDGE_LOOP ( 'NONE', ( #124 ) ) ;
#100 = DIRECTION ( 'NONE',  ( 4.601983140710247531E-31, 1.000000000000000000, 1.295343097354248478E-16 ) ) ;
#101 = CIRCLE ( 'NONE', #278, 0.3607649730810376654 ) ;
#102 = ORIENTED_EDGE ( 'NONE', *, *, #177, .T. ) ;
#103 = DIRECTION ( 'NONE',  ( -3.491481338843133355E-15, 1.224646799147352961E-16, -1.000000000000000000 ) ) ;
#104 = CARTESIAN_POINT ( 'NONE',  ( 3.263591079328455776E-14, -1.144713656224131229E-15, 9.347296355333845952 ) ) ;
#105 = DIRECTION ( 'NONE',  ( 0.0000000000000000000, 1.000000000000000000, 0.0000000000000000000 ) ) ;
#106 = TOROIDAL_SURFACE ( 'NONE', #128, 2.375000000000000444, 2.000000000000000000 ) ;
#107 = CC_DESIGN_APPROVAL ( #113, ( #223 ) ) ;
#108 = CIRCLE ( 'NONE', #180, 0.4053844939755815724 ) ;
#109 = AXIS2_PLACEMENT_3D ( 'NONE', #236, #24, #58 ) ;
#110 = CC_DESIGN_APPROVAL ( #130, ( #267 ) ) ;
#111 = ORIENTED_EDGE ( 'NONE', *, *, #200, .T. ) ;
#112 = CARTESIAN_POINT ( 'NONE',  ( 0.0000000000000000000, 0.3607649730810376654, 0.0000000000000000000 ) ) ;
#113 = APPROVAL ( #22, 'UNSPECIFIED' ) ;
#114 = PERSON_AND_ORGANIZATION ( #253, #36 ) ;
#115 = DIRECTION ( 'NONE',  ( 4.275831445896957731E-31, 1.000000000000000000, 1.224646799147352961E-16 ) ) ;
#116 = COORDINATED_UNIVERSAL_TIME_OFFSET ( 1, 0, .AHEAD. ) ;
#117 = CARTESIAN_POINT ( 'NONE',  ( 3.142333204958820020E-14, -1.102182119232617517E-15, 9.000000000000000000 ) ) ;
#118 = COORDINATED_UNIVERSAL_TIME_OFFSET ( 1, 0, .AHEAD. ) ;
#119 = DIRECTION ( 'NONE',  ( -3.491481338843133355E-15, 1.224646799147352961E-16, -1.000000000000000000 ) ) ;
#120 = ORIENTED_EDGE ( 'NONE', *, *, #156, .F. ) ;
#121 = CYLINDRICAL_SURFACE ( 'NONE', #204, 0.3749999999999997780 ) ;
#122 = PERSON_AND_ORGANIZATION ( #253, #36 ) ;
#123 = ORIENTED_EDGE ( 'NONE', *, *, #183, .T. ) ;
#124 = ORIENTED_EDGE ( 'NONE', *, *, #138, .F. ) ;
#125 = CARTESIAN_POINT ( 'NONE',  ( 3.491481338843132369E-16, -1.224646799147352498E-17, 0.09999999999999996392 ) ) ;
#126 = DATE_AND_TIME ( #286, #41 ) ;
#127 = FACE_OUTER_BOUND ( 'NONE', #53, .T. ) ;
#128 = AXIS2_PLACEMENT_3D ( 'NONE', #233, #287, #6 ) ;
#129 = AXIS2_PLACEMENT_3D ( 'NONE', #245, #224, #199 ) ;
#130 = APPROVAL ( #67, 'UNSPECIFIED' ) ;
#131 = CARTESIAN_POINT ( 'NONE',  ( 5.431058359229120075E-14, -1.904958838421344481E-15, 15.55516937412200562 ) ) ;
#132 = DIRECTION ( 'NONE',  ( 0.0000000000000000000, 1.000000000000000000, 0.0000000000000000000 ) ) ;
#133 = CC_DESIGN_DATE_AND_TIME_ASSIGNMENT ( #207, #88, ( #82 ) ) ;
#134 = CARTESIAN_POINT ( 'NONE',  ( 1.316288464743861212E-13, 1.499999999999998668, 37.69999999999999574 ) ) ;
#135 = AXIS2_PLACEMENT_3D ( 'NONE', #4, #119, #115 ) ;
#136 = PRODUCT_DEFINITION_SHAPE ( 'NONE', 'NONE',  #82 ) ;
#137 = VERTEX_POINT ( 'NONE', #45 ) ;
#138 = EDGE_CURVE ( 'NONE', #275, #275, #230, .T. ) ;
#139 = APPROVAL_STATUS ( 'not_yet_approved' ) ;
#140 = DIRECTION ( 'NONE',  ( -3.491481338843133355E-15, 1.224646799147352961E-16, -1.000000000000000000 ) ) ;
#141 = PERSON_AND_ORGANIZATION_ROLE ( 'classification_officer' ) ;
#142 = FACE_OUTER_BOUND ( 'NONE', #99, .T. ) ;
#143 = DIRECTION ( 'NONE',  ( 1.000000000000000000, 0.0000000000000000000, 0.0000000000000000000 ) ) ;
#144 = FACE_BOUND ( 'NONE', #7, .T. ) ;
#145 = CYLINDRICAL_SURFACE ( 'NONE', #135, 0.4184999999999997056 ) ;
#146 = AXIS2_PLACEMENT_3D ( 'NONE', #63, #103, #179 ) ;
#147 = ORIENTED_EDGE ( 'NONE', *, *, #301, .F. ) ;
#148 = CARTESIAN_POINT ( 'NONE',  ( 1.326762908760390423E-13, -4.653657836759941152E-15, 38.00000000000000000 ) ) ;
#149 = PERSON_AND_ORGANIZATION ( #253, #36 ) ;
#150 = CYLINDRICAL_SURFACE ( 'NONE', #18, 1.500000000000000444 ) ;
#151 = DIRECTION ( 'NONE',  ( -4.275831445896957731E-31, -1.000000000000000000, -1.224646799147352961E-16 ) ) ;
#152 = DIRECTION ( 'NONE',  ( -3.491481338843133355E-15, 1.224646799147352961E-16, -1.000000000000000000 ) ) ;
#153 = DATE_TIME_ROLE ( 'classification_date' ) ;
#154 = ADVANCED_FACE ( 'NONE', ( #37, #60 ), #277, .T. ) ;
#155 = PLANE ( 'NONE',  #146 ) ;
#156 = EDGE_CURVE ( 'NONE', #39, #39, #249, .T. ) ;
#157 = CARTESIAN_POINT ( 'NONE',  ( 5.431058359229120075E-14, 1.499999999999995559, 15.55516937412200562 ) ) ;
#158 = DIRECTION ( 'NONE',  ( 0.0000000000000000000, -1.000000000000000000, 0.0000000000000000000 ) ) ;
#159 = CIRCLE ( 'NONE', #61, 0.4184999999999993725 ) ;
#160 = VERTEX_POINT ( 'NONE', #178 ) ;
#161 = CLOSED_SHELL ( 'NONE', ( #274, #95, #247, #79, #154, #34, #256, #299 ) ) ;
#162 = APPROVAL_PERSON_ORGANIZATION ( #69, #113, #165 ) ;
#163 = PERSON_AND_ORGANIZATION_ROLE ( 'creator' ) ;
#164 = DIRECTION ( 'NONE',  ( 4.275831445896957731E-31, 1.000000000000000000, 1.224646799147353207E-16 ) ) ;
#165 = APPROVAL_ROLE ( '' ) ;
#166 = CARTESIAN_POINT ( 'NONE',  ( -1.542570216478070201E-31, 5.410607976200277107E-33, -4.418096695281737110E-17 ) ) ;
#167 = DIRECTION ( 'NONE',  ( 3.491481338843133355E-15, -1.224646799147352961E-16, 1.000000000000000000 ) ) ;
#168 = DIRECTION ( 'NONE',  ( 0.0000000000000000000, 1.000000000000000000, 0.0000000000000000000 ) ) ;
#169 = CONICAL_SURFACE ( 'NONE', #192, 1.200000000000003286, 0.7853981633974453924 ) ;
#170 = AXIS2_PLACEMENT_3D ( 'NONE', #252, #14, #132 ) ;
#171 = EDGE_LOOP ( 'NONE', ( #186 ) ) ;
#172 = DIRECTION ( 'NONE',  ( -4.601983140710247531E-31, -1.000000000000000000, -1.295343097354248478E-16 ) ) ;
#173 = PERSON_AND_ORGANIZATION ( #253, #36 ) ;
#174 = DIRECTION ( 'NONE',  ( -3.491481338843133355E-15, 1.224646799147352961E-16, -1.000000000000000000 ) ) ;
#175 = DIRECTION ( 'NONE',  ( -3.491481338843133355E-15, 1.224646799147352961E-16, -1.000000000000000000 ) ) ;
#176 = UNCERTAINTY_MEASURE_WITH_UNIT (LENGTH_MEASURE( 1.000000000000000082E-05 ), #228, 'distance_accuracy_value', 'NONE');
#177 = EDGE_CURVE ( 'NONE', #225, #225, #9, .T. ) ;
#178 = CARTESIAN_POINT ( 'NONE',  ( 3.142333204958820020E-14, 0.3749999999999990563, 9.000000000000000000 ) ) ;
#179 = DIRECTION ( 'NONE',  ( 4.275831445896957731E-31, 1.000000000000000000, 1.224646799147352961E-16 ) ) ;
#180 = AXIS2_PLACEMENT_3D ( 'NONE', #104, #197, #105 ) ;
#181 = CARTESIAN_POINT ( 'NONE',  ( 3.491481338843134341E-16, 0.4184999999999993725, 0.1000000000000000194 ) ) ;
#182 = APPLICATION_CONTEXT ( 'configuration controlled 3d designs of mechanical parts and assemblies' ) ;
#183 = EDGE_CURVE ( 'NONE', #298, #298, #108, .T. ) ;
#184 = MANIFOLD_SOLID_BREP ( 'Corps-Déplacer/Copier1[1]', #161 ) ;
#185 = PERSON_AND_ORGANIZATION_ROLE ( 'design_owner' ) ;
#186 = ORIENTED_EDGE ( 'NONE', *, *, #301, .T. ) ;
#187 = CARTESIAN_POINT ( 'NONE',  ( -7.712851082390351007E-32, 2.705303988100138553E-33, -2.209048347640868555E-17 ) ) ;
#188 = CARTESIAN_POINT ( 'NONE',  ( 3.491481338843132369E-16, -1.224646799147352498E-17, 0.09999999999999996392 ) ) ;
#189 = ORIENTED_EDGE ( 'NONE', *, *, #44, .F. ) ;
#190 = DIRECTION ( 'NONE',  ( 0.0000000000000000000, 1.000000000000000000, 0.0000000000000000000 ) ) ;
#191 = FACE_OUTER_BOUND ( 'NONE', #242, .T. ) ;
#192 = AXIS2_PLACEMENT_3D ( 'NONE', #148, #31, #190 ) ;
#193 = CC_DESIGN_PERSON_AND_ORGANIZATION_ASSIGNMENT ( #114, #185, ( #227 ) ) ;
#194 = APPROVAL_PERSON_ORGANIZATION ( #255, #210, #47 ) ;
#195 = APPROVAL_DATE_TIME ( #94, #130 ) ;
#196 = EDGE_LOOP ( 'NONE', ( #86 ) ) ;
#197 = DIRECTION ( 'NONE',  ( -3.491481338843133355E-15, 1.224646799147352961E-16, -1.000000000000000000 ) ) ;
#198 = AXIS2_PLACEMENT_3D ( 'NONE', #283, #70, #32 ) ;
#199 = DIRECTION ( 'NONE',  ( 0.0000000000000000000, 1.000000000000000000, 0.0000000000000000000 ) ) ;
#200 = EDGE_CURVE ( 'NONE', #137, #137, #12, .T. ) ;
#201 = LOCAL_TIME ( 15, 49, 20.00000000000000000, #116 ) ;
#202 = CC_DESIGN_PERSON_AND_ORGANIZATION_ASSIGNMENT ( #272, #213, ( #223 ) ) ;
#203 = AXIS2_PLACEMENT_3D ( 'NONE', #97, #175, #168 ) ;
#204 = AXIS2_PLACEMENT_3D ( 'NONE', #23, #212, #91 ) ;
#205 = EDGE_LOOP ( 'NONE', ( #220 ) ) ;
#206 = VERTEX_POINT ( 'NONE', #302 ) ;
#207 = DATE_AND_TIME ( #20, #40 ) ;
#208 = DIRECTION ( 'NONE',  ( 4.275831445896957731E-31, 1.000000000000000000, 1.224646799147352961E-16 ) ) ;
#209 = FACE_BOUND ( 'NONE', #96, .T. ) ;
#210 = APPROVAL ( #139, 'UNSPECIFIED' ) ;
#211 = CALENDAR_DATE ( 2021, 29, 11 ) ;
#212 = DIRECTION ( 'NONE',  ( -3.491481338843133355E-15, 1.224646799147352961E-16, -1.000000000000000000 ) ) ;
#213 = PERSON_AND_ORGANIZATION_ROLE ( 'creator' ) ;
#214 = FACE_OUTER_BOUND ( 'NONE', #73, .T. ) ;
#215 = APPROVAL_DATE_TIME ( #284, #210 ) ;
#216 = ORIENTED_EDGE ( 'NONE', *, *, #138, .T. ) ;
#217 = FACE_OUTER_BOUND ( 'NONE', #66, .T. ) ;
#218 = COORDINATED_UNIVERSAL_TIME_OFFSET ( 1, 0, .AHEAD. ) ;
#219 = ORIENTED_EDGE ( 'NONE', *, *, #293, .F. ) ;
#220 = ORIENTED_EDGE ( 'NONE', *, *, #200, .F. ) ;
#221 = DIRECTION ( 'NONE',  ( -3.491481338843133355E-15, 1.224646799147352961E-16, -1.000000000000000000 ) ) ;
#222 = DIRECTION ( 'NONE',  ( 3.491481338843133355E-15, -1.224646799147352961E-16, 1.000000000000000000 ) ) ;
#223 = PRODUCT_DEFINITION_FORMATION_WITH_SPECIFIED_SOURCE ( 'ANY', '', #227, .NOT_KNOWN. ) ;
#224 = DIRECTION ( 'NONE',  ( -3.491481338843133355E-15, 1.224646799147352961E-16, -1.000000000000000000 ) ) ;
#225 = VERTEX_POINT ( 'NONE', #279 ) ;
#226 = DIRECTION ( 'NONE',  ( -3.491481338843133355E-15, 1.224646799147352961E-16, -1.000000000000000000 ) ) ;
#227 = PRODUCT ( '200029', '200029', '', ( #232 ) ) ;
#228 =( LENGTH_UNIT ( ) NAMED_UNIT ( * ) SI_UNIT ( .MILLI., .METRE. ) );
#229 = VERTEX_POINT ( 'NONE', #112 ) ;
#230 = CIRCLE ( 'NONE', #300, 1.499999999999997335 ) ;
#231 = CONICAL_SURFACE ( 'NONE', #203, 0.3749999999999995004, 0.5235987755982931535 ) ;
#232 = MECHANICAL_CONTEXT ( 'NONE', #182, 'mechanical' ) ;
#233 = CARTESIAN_POINT ( 'NONE',  ( 3.142333204958820020E-14, -1.301042606982605321E-15, 9.000000000000000000 ) ) ;
#234 = COORDINATED_UNIVERSAL_TIME_OFFSET ( 1, 0, .AHEAD. ) ;
#235 = FACE_OUTER_BOUND ( 'NONE', #196, .T. ) ;
#236 = CARTESIAN_POINT ( 'NONE',  ( 1.745740669421566678E-14, 3.138247345219926562E-33, 5.000000000000000000 ) ) ;
#237 = ORIENTED_EDGE ( 'NONE', *, *, #183, .F. ) ;
#238 = ORIENTED_EDGE ( 'NONE', *, *, #156, .T. ) ;
#239 = EDGE_CURVE ( 'NONE', #229, #229, #101, .T. ) ;
#240 = SHAPE_DEFINITION_REPRESENTATION ( #136, #64 ) ;
#241 = ORIENTED_EDGE ( 'NONE', *, *, #13, .T. ) ;
#242 = EDGE_LOOP ( 'NONE', ( #238 ) ) ;
#243 = EDGE_LOOP ( 'NONE', ( #90 ) ) ;
#244 =( GEOMETRIC_REPRESENTATION_CONTEXT ( 3 ) GLOBAL_UNCERTAINTY_ASSIGNED_CONTEXT ( ( #176 ) ) GLOBAL_UNIT_ASSIGNED_CONTEXT ( ( #228, #85, #43 ) ) REPRESENTATION_CONTEXT ( 'NONE', 'WORKASPACE' ) );
#245 = CARTESIAN_POINT ( 'NONE',  ( 1.745740669421566678E-14, -6.123233995736765296E-16, 5.000000000000000000 ) ) ;
#246 = DESIGN_CONTEXT ( 'detailed design', #93, 'design' ) ;
#247 = ADVANCED_FACE ( 'NONE', ( #235, #217 ), #121, .T. ) ;
#248 = DIRECTION ( 'NONE',  ( 3.491481338843133355E-15, -1.224646799147352961E-16, 1.000000000000000000 ) ) ;
#249 = CIRCLE ( 'NONE', #170, 1.500000000000003331 ) ;
#250 = LOCAL_TIME ( 15, 49, 20.00000000000000000, #218 ) ;
#251 = ADVANCED_FACE ( 'NONE', ( #144, #27 ), #258, .T. ) ;
#252 = CARTESIAN_POINT ( 'NONE',  ( 1.316288464743861212E-13, -4.616918432785520292E-15, 37.69999999999999574 ) ) ;
#253 = PERSON ( 'UNSPECIFIED', 'UNSPECIFIED', 'UNSPECIFIED', ('UNSPECIFIED'), ('UNSPECIFIED'), ('UNSPECIFIED') ) ;
#254 = AXIS2_PLACEMENT_3D ( 'NONE', #187, #222, #71 ) ;
#255 = PERSON_AND_ORGANIZATION ( #253, #36 ) ;
#256 = ADVANCED_FACE ( 'NONE', ( #264, #10 ), #169, .T. ) ;
#257 = FACE_OUTER_BOUND ( 'NONE', #8, .T. ) ;
#258 = CONICAL_SURFACE ( 'NONE', #296, 0.4184999999999993725, 0.5235987755982925984 ) ;
#259 = DIRECTION ( 'NONE',  ( 0.0000000000000000000, 0.0000000000000000000, 1.000000000000000000 ) ) ;
#260 = COORDINATED_UNIVERSAL_TIME_OFFSET ( 1, 0, .AHEAD. ) ;
#261 = PLANE ( 'NONE',  #109 ) ;
#262 = CARTESIAN_POINT ( 'NONE',  ( 0.0000000000000000000, 0.0000000000000000000, 0.0000000000000000000 ) ) ;
#263 = FACE_OUTER_BOUND ( 'NONE', #290, .T. ) ;
#264 = FACE_OUTER_BOUND ( 'NONE', #68, .T. ) ;
#265 = SECURITY_CLASSIFICATION_LEVEL ( 'unclassified' ) ;
#266 = DIRECTION ( 'NONE',  ( -3.491481338843133355E-15, 1.224646799147352961E-16, -1.000000000000000000 ) ) ;
#267 = SECURITY_CLASSIFICATION ( '', '', #265 ) ;
#268 = ORIENTED_EDGE ( 'NONE', *, *, #239, .F. ) ;
#269 = CARTESIAN_POINT ( 'NONE',  ( 1.745740669421566678E-14, 3.138247345219926562E-33, 5.000000000000000000 ) ) ;
#270 = CALENDAR_DATE ( 2021, 29, 11 ) ;
#271 = FACE_OUTER_BOUND ( 'NONE', #205, .T. ) ;
#272 = PERSON_AND_ORGANIZATION ( #253, #36 ) ;
#273 = CARTESIAN_POINT ( 'NONE',  ( 5.431058359229120075E-14, -1.904958838421344481E-15, 15.55516937412200562 ) ) ;
#274 = ADVANCED_FACE ( 'NONE', ( #289 ), #281, .F. ) ;
#275 = VERTEX_POINT ( 'NONE', #157 ) ;
#276 = LOCAL_TIME ( 15, 49, 20.00000000000000000, #118 ) ;
#277 = CONICAL_SURFACE ( 'NONE', #72, 1.499999999999997335, 0.1745329251994260644 ) ;
#278 = AXIS2_PLACEMENT_3D ( 'NONE', #166, #3, #208 ) ;
#279 = CARTESIAN_POINT ( 'NONE',  ( 1.326762908760390423E-13, 1.199999999999998845, 38.00000000000000000 ) ) ;
#280 = CC_DESIGN_DATE_AND_TIME_ASSIGNMENT ( #126, #153, ( #267 ) ) ;
#281 = PLANE ( 'NONE',  #46 ) ;
#282 = CALENDAR_DATE ( 2021, 29, 11 ) ;
#283 = CARTESIAN_POINT ( 'NONE',  ( 1.772046959787181091E-14, -6.215504041505834086E-16, 5.075344210129247635 ) ) ;
#284 = DATE_AND_TIME ( #282, #276 ) ;
#285 = FACE_OUTER_BOUND ( 'NONE', #33, .T. ) ;
#286 = CALENDAR_DATE ( 2021, 29, 11 ) ;
#287 = DIRECTION ( 'NONE',  ( -3.491481338843133355E-15, 1.224646799147352961E-16, -1.000000000000000000 ) ) ;
#288 = AXIS2_PLACEMENT_3D ( 'NONE', #292, #140, #89 ) ;
#289 = FACE_OUTER_BOUND ( 'NONE', #171, .T. ) ;
#290 = EDGE_LOOP ( 'NONE', ( #123 ) ) ;
#291 = ORIENTED_EDGE ( 'NONE', *, *, #239, .T. ) ;
#292 = CARTESIAN_POINT ( 'NONE',  ( 1.745740669421566678E-14, -6.123233995736765296E-16, 5.000000000000000000 ) ) ;
#293 = EDGE_CURVE ( 'NONE', #16, #16, #159, .T. ) ;
#294 = VERTEX_POINT ( 'NONE', #80 ) ;
#295 = CARTESIAN_POINT ( 'NONE',  ( 1.326762908760390423E-13, -4.653657836759941152E-15, 38.00000000000000000 ) ) ;
#296 = AXIS2_PLACEMENT_3D ( 'NONE', #188, #167, #172 ) ;
#297 = CC_DESIGN_APPROVAL ( #210, ( #82 ) ) ;
#298 = VERTEX_POINT ( 'NONE', #65 ) ;
#299 = ADVANCED_FACE ( 'NONE', ( #257 ), #155, .F. ) ;
#300 = AXIS2_PLACEMENT_3D ( 'NONE', #273, #266, #2 ) ;
#301 = EDGE_CURVE ( 'NONE', #206, #206, #19, .T. ) ;
#302 = CARTESIAN_POINT ( 'NONE',  ( 1.745740669421566678E-14, 0.4184999999999993725, 5.000000000000000000 ) ) ;
#303 = APPLICATION_PROTOCOL_DEFINITION ( 'international standard', 'config_control_design', 1994, #182 ) ;
ENDSEC;
END-ISO-10303-21;
