ISO-10303-21;
HEADER;
FILE_DESCRIPTION (( 'STEP AP203' ),
    '1' );
FILE_NAME ('200028.step',
    '2021-11-29T14:49:20',
    ( '' ),
    ( '' ),
    'SwSTEP 2.0',
    'SolidWorks 2019',
    '' );
FILE_SCHEMA (( 'CONFIG_CONTROL_DESIGN' ));
ENDSEC;

DATA;
#1 = APPLICATION_PROTOCOL_DEFINITION ( 'international standard', 'config_control_design', 1994, #160 ) ;
#2 = DIRECTION ( 'NONE',  ( -3.491481338843133355E-15, 1.224646799147352961E-16, -1.000000000000000000 ) ) ;
#3 = AXIS2_PLACEMENT_3D ( 'NONE', #94, #191, #278 ) ;
#4 =( NAMED_UNIT ( * ) SI_UNIT ( $, .STERADIAN. ) SOLID_ANGLE_UNIT ( ) );
#5 = DIRECTION ( 'NONE',  ( -3.491481338843133355E-15, 1.224646799147352961E-16, -1.000000000000000000 ) ) ;
#6 = DIRECTION ( 'NONE',  ( -3.491481338843133355E-15, 1.224646799147352961E-16, -1.000000000000000000 ) ) ;
#7 =( NAMED_UNIT ( * ) PLANE_ANGLE_UNIT ( ) SI_UNIT ( $, .RADIAN. ) );
#8 = CARTESIAN_POINT ( 'NONE',  ( 3.491481338843134341E-16, 0.4234999999999993769, 0.1000000000000000194 ) ) ;
#9 = CIRCLE ( 'NONE', #91, 0.3799999999999995604 ) ;
#10 = VERTEX_POINT ( 'NONE', #142 ) ;
#11 = ADVANCED_FACE ( 'NONE', ( #276 ), #233, .T. ) ;
#12 = EDGE_LOOP ( 'NONE', ( #130 ) ) ;
#13 = EDGE_CURVE ( 'NONE', #143, #143, #230, .T. ) ;
#14 = ORIENTED_EDGE ( 'NONE', *, *, #205, .F. ) ;
#15 = DIRECTION ( 'NONE',  ( -3.491481338843133355E-15, 1.224646799147352961E-16, -1.000000000000000000 ) ) ;
#16 = AXIS2_PLACEMENT_3D ( 'NONE', #282, #237, #264 ) ;
#17 = CARTESIAN_POINT ( 'NONE',  ( 1.745740669421566678E-14, -6.123233995736765296E-16, 5.000000000000000000 ) ) ;
#18 = EDGE_LOOP ( 'NONE', ( #88 ) ) ;
#19 = ORIENTED_EDGE ( 'NONE', *, *, #302, .F. ) ;
#20 = ADVANCED_BREP_SHAPE_REPRESENTATION ( '200028', ( #178, #184, #53 ), #188 ) ;
#21 = AXIS2_PLACEMENT_3D ( 'NONE', #190, #215, #22 ) ;
#22 = DIRECTION ( 'NONE',  ( 4.275831445896957731E-31, 1.000000000000000000, 1.224646799147352961E-16 ) ) ;
#23 = PLANE ( 'NONE',  #104 ) ;
#24 = PERSON_AND_ORGANIZATION_ROLE ( 'creator' ) ;
#25 = FACE_BOUND ( 'NONE', #231, .T. ) ;
#26 = APPROVAL_STATUS ( 'not_yet_approved' ) ;
#27 = CARTESIAN_POINT ( 'NONE',  ( 0.0000000000000000000, 0.3657649730810376143, 0.0000000000000000000 ) ) ;
#28 = AXIS2_PLACEMENT_3D ( 'NONE', #280, #115, #214 ) ;
#29 = APPROVAL_PERSON_ORGANIZATION ( #222, #118, #279 ) ;
#30 = APPROVAL_DATE_TIME ( #72, #118 ) ;
#31 = CYLINDRICAL_SURFACE ( 'NONE', #21, 0.3799999999999996714 ) ;
#32 = CARTESIAN_POINT ( 'NONE',  ( 3.142333204958820020E-14, 0.3799999999999988387, 9.000000000000000000 ) ) ;
#33 = PERSON_AND_ORGANIZATION ( #206, #291 ) ;
#34 = SHAPE_DEFINITION_REPRESENTATION ( #164, #20 ) ;
#35 = CC_DESIGN_PERSON_AND_ORGANIZATION_ASSIGNMENT ( #281, #170, ( #298 ) ) ;
#36 = CONICAL_SURFACE ( 'NONE', #46, 0.3799999999999995604, 0.5235987755982931535 ) ;
#37 = CC_DESIGN_APPROVAL ( #293, ( #74 ) ) ;
#38 = ORIENTED_EDGE ( 'NONE', *, *, #302, .T. ) ;
#39 = FACE_OUTER_BOUND ( 'NONE', #92, .T. ) ;
#40 = EDGE_LOOP ( 'NONE', ( #153 ) ) ;
#41 = CLOSED_SHELL ( 'NONE', ( #213, #131, #185, #87, #240, #202, #56, #262 ) ) ;
#42 = FACE_OUTER_BOUND ( 'NONE', #107, .T. ) ;
#43 = EDGE_LOOP ( 'NONE', ( #19 ) ) ;
#44 = DIRECTION ( 'NONE',  ( -4.275831445896957731E-31, -1.000000000000000000, -1.224646799147352961E-16 ) ) ;
#45 = EDGE_CURVE ( 'NONE', #71, #71, #285, .T. ) ;
#46 = AXIS2_PLACEMENT_3D ( 'NONE', #154, #65, #180 ) ;
#47 = CARTESIAN_POINT ( 'NONE',  ( 0.0000000000000000000, 0.0000000000000000000, 0.0000000000000000000 ) ) ;
#48 = FACE_OUTER_BOUND ( 'NONE', #289, .T. ) ;
#49 = CALENDAR_DATE ( 2021, 29, 11 ) ;
#50 = DIRECTION ( 'NONE',  ( 0.0000000000000000000, -1.000000000000000000, 0.0000000000000000000 ) ) ;
#51 = PERSON_AND_ORGANIZATION ( #206, #291 ) ;
#52 = FACE_BOUND ( 'NONE', #60, .T. ) ;
#53 = AXIS2_PLACEMENT_3D ( 'NONE', #175, #283, #75 ) ;
#54 = DIRECTION ( 'NONE',  ( 3.491481338843133355E-15, -1.224646799147352961E-16, 1.000000000000000000 ) ) ;
#55 = PERSON_AND_ORGANIZATION ( #206, #291 ) ;
#56 = ADVANCED_FACE ( 'NONE', ( #207, #132 ), #242, .T. ) ;
#57 = COORDINATED_UNIVERSAL_TIME_OFFSET ( 1, 0, .AHEAD. ) ;
#58 = APPROVAL_DATE_TIME ( #127, #158 ) ;
#59 = EDGE_LOOP ( 'NONE', ( #106 ) ) ;
#60 = EDGE_LOOP ( 'NONE', ( #67 ) ) ;
#61 = AXIS2_PLACEMENT_3D ( 'NONE', #78, #239, #99 ) ;
#62 = ORIENTED_EDGE ( 'NONE', *, *, #45, .F. ) ;
#63 = DIRECTION ( 'NONE',  ( -3.491481338843133355E-15, 1.224646799147352961E-16, -1.000000000000000000 ) ) ;
#64 = EDGE_CURVE ( 'NONE', #261, #261, #9, .T. ) ;
#65 = DIRECTION ( 'NONE',  ( -3.491481338843133355E-15, 1.224646799147352961E-16, -1.000000000000000000 ) ) ;
#66 = LOCAL_TIME ( 15, 49, 20.00000000000000000, #144 ) ;
#67 = ORIENTED_EDGE ( 'NONE', *, *, #13, .F. ) ;
#68 = CARTESIAN_POINT ( 'NONE',  ( 3.142333204958820020E-14, -1.301042606982605321E-15, 9.000000000000000000 ) ) ;
#69 = CARTESIAN_POINT ( 'NONE',  ( 1.326762908760390423E-13, -4.653657836759941152E-15, 38.00000000000000000 ) ) ;
#70 = CIRCLE ( 'NONE', #290, 0.4234999999999999876 ) ;
#71 = VERTEX_POINT ( 'NONE', #194 ) ;
#72 = DATE_AND_TIME ( #263, #172 ) ;
#73 = CARTESIAN_POINT ( 'NONE',  ( 1.745740669421566678E-14, 0.4234999999999993769, 5.000000000000000000 ) ) ;
#74 = PRODUCT_DEFINITION ( 'UNKNOWN', '', #298, #84 ) ;
#75 = DIRECTION ( 'NONE',  ( 1.000000000000000000, 0.0000000000000000000, 0.0000000000000000000 ) ) ;
#76 = VERTEX_POINT ( 'NONE', #32 ) ;
#77 = DATE_TIME_ROLE ( 'creation_date' ) ;
#78 = CARTESIAN_POINT ( 'NONE',  ( 1.326762908760390423E-13, 8.998558695971099120E-33, 38.00000000000000000 ) ) ;
#79 = CONICAL_SURFACE ( 'NONE', #251, 1.499999999999997335, 0.1745329251994261199 ) ;
#80 = SECURITY_CLASSIFICATION ( '', '', #123 ) ;
#81 = PERSON_AND_ORGANIZATION ( #206, #291 ) ;
#82 = EDGE_LOOP ( 'NONE', ( #232 ) ) ;
#83 = APPROVAL_DATE_TIME ( #245, #293 ) ;
#84 = DESIGN_CONTEXT ( 'detailed design', #160, 'design' ) ;
#85 = AXIS2_PLACEMENT_3D ( 'NONE', #258, #228, #44 ) ;
#86 = DIRECTION ( 'NONE',  ( 4.275831445896957731E-31, 1.000000000000000000, 1.224646799147352961E-16 ) ) ;
#87 = ADVANCED_FACE ( 'NONE', ( #42, #295 ), #256, .F. ) ;
#88 = ORIENTED_EDGE ( 'NONE', *, *, #205, .T. ) ;
#89 = FACE_OUTER_BOUND ( 'NONE', #43, .T. ) ;
#90 = CARTESIAN_POINT ( 'NONE',  ( 1.326762908760390423E-13, -4.653657836759941152E-15, 38.00000000000000000 ) ) ;
#91 = AXIS2_PLACEMENT_3D ( 'NONE', #186, #138, #212 ) ;
#92 = EDGE_LOOP ( 'NONE', ( #179 ) ) ;
#93 = FACE_OUTER_BOUND ( 'NONE', #105, .T. ) ;
#94 = CARTESIAN_POINT ( 'NONE',  ( 1.745740669421566678E-14, -6.123233995736765296E-16, 5.000000000000000000 ) ) ;
#95 = APPROVAL_STATUS ( 'not_yet_approved' ) ;
#96 = VERTEX_POINT ( 'NONE', #73 ) ;
#97 = EDGE_CURVE ( 'NONE', #96, #96, #70, .T. ) ;
#98 = APPROVAL_ROLE ( '' ) ;
#99 = DIRECTION ( 'NONE',  ( 4.275831445896957731E-31, 1.000000000000000000, 1.224646799147352961E-16 ) ) ;
#100 = PERSON_AND_ORGANIZATION_ROLE ( 'creator' ) ;
#101 = DIRECTION ( 'NONE',  ( 0.0000000000000000000, 1.000000000000000000, 0.0000000000000000000 ) ) ;
#102 = CC_DESIGN_PERSON_AND_ORGANIZATION_ASSIGNMENT ( #192, #100, ( #74 ) ) ;
#103 = VERTEX_POINT ( 'NONE', #246 ) ;
#104 = AXIS2_PLACEMENT_3D ( 'NONE', #116, #54, #301 ) ;
#105 = EDGE_LOOP ( 'NONE', ( #38 ) ) ;
#106 = ORIENTED_EDGE ( 'NONE', *, *, #272, .T. ) ;
#107 = EDGE_LOOP ( 'NONE', ( #227 ) ) ;
#108 = ADVANCED_FACE ( 'NONE', ( #189, #234 ), #275, .T. ) ;
#109 = EDGE_LOOP ( 'NONE', ( #271 ) ) ;
#110 = AXIS2_PLACEMENT_3D ( 'NONE', #47, #6, #266 ) ;
#111 = DIRECTION ( 'NONE',  ( -3.491481338843133355E-15, 1.224646799147352961E-16, -1.000000000000000000 ) ) ;
#112 = EDGE_LOOP ( 'NONE', ( #204 ) ) ;
#113 = CARTESIAN_POINT ( 'NONE',  ( -1.563949373707554916E-31, 5.485595965333369850E-33, -4.479329035239104019E-17 ) ) ;
#114 = LOCAL_TIME ( 15, 49, 20.00000000000000000, #238 ) ;
#115 = DIRECTION ( 'NONE',  ( -3.491481338843133355E-15, 1.224646799147352961E-16, -1.000000000000000000 ) ) ;
#116 = CARTESIAN_POINT ( 'NONE',  ( -7.819746868537774578E-32, 2.742797982666684925E-33, -2.239664517619552009E-17 ) ) ;
#117 = CARTESIAN_POINT ( 'NONE',  ( 1.316288464743861212E-13, 1.499999999999998668, 37.69999999999999574 ) ) ;
#118 = APPROVAL ( #176, 'UNSPECIFIED' ) ;
#119 = DIRECTION ( 'NONE',  ( -3.491481338843133355E-15, 1.224646799147352961E-16, -1.000000000000000000 ) ) ;
#120 = AXIS2_PLACEMENT_3D ( 'NONE', #90, #111, #299 ) ;
#121 = VERTEX_POINT ( 'NONE', #219 ) ;
#122 = CARTESIAN_POINT ( 'NONE',  ( 3.491481338843132369E-16, -1.224646799147352498E-17, 0.09999999999999996392 ) ) ;
#123 = SECURITY_CLASSIFICATION_LEVEL ( 'unclassified' ) ;
#124 = VERTEX_POINT ( 'NONE', #117 ) ;
#125 = AXIS2_PLACEMENT_3D ( 'NONE', #68, #161, #133 ) ;
#126 = UNCERTAINTY_MEASURE_WITH_UNIT (LENGTH_MEASURE( 1.000000000000000082E-05 ), #224, 'distance_accuracy_value', 'NONE');
#127 = DATE_AND_TIME ( #177, #173 ) ;
#128 = AXIS2_PLACEMENT_3D ( 'NONE', #69, #119, #101 ) ;
#129 = AXIS2_PLACEMENT_3D ( 'NONE', #162, #2, #277 ) ;
#130 = ORIENTED_EDGE ( 'NONE', *, *, #254, .F. ) ;
#131 = ADVANCED_FACE ( 'NONE', ( #89, #253 ), #36, .T. ) ;
#132 = FACE_BOUND ( 'NONE', #18, .T. ) ;
#133 = DIRECTION ( 'NONE',  ( 4.275831445896957731E-31, 1.000000000000000000, 1.224646799147352961E-16 ) ) ;
#134 = CLOSED_SHELL ( 'NONE', ( #268, #197, #108, #11 ) ) ;
#135 = AXIS2_PLACEMENT_3D ( 'NONE', #260, #303, #196 ) ;
#136 = EDGE_LOOP ( 'NONE', ( #183 ) ) ;
#137 = EDGE_LOOP ( 'NONE', ( #182 ) ) ;
#138 = DIRECTION ( 'NONE',  ( -3.491481338843133355E-15, 1.224646799147352961E-16, -1.000000000000000000 ) ) ;
#139 = CYLINDRICAL_SURFACE ( 'NONE', #110, 1.500000000000000444 ) ;
#140 = CC_DESIGN_PERSON_AND_ORGANIZATION_ASSIGNMENT ( #166, #150, ( #80 ) ) ;
#141 = CARTESIAN_POINT ( 'NONE',  ( 1.772046959787181091E-14, 0.3799999999999989497, 5.075344210129247635 ) ) ;
#142 = CARTESIAN_POINT ( 'NONE',  ( 1.745740669421566678E-14, 0.4234999999999993769, 5.000000000000000000 ) ) ;
#143 = VERTEX_POINT ( 'NONE', #27 ) ;
#144 = COORDINATED_UNIVERSAL_TIME_OFFSET ( 1, 0, .AHEAD. ) ;
#145 = AXIS2_PLACEMENT_3D ( 'NONE', #274, #294, #86 ) ;
#146 = CC_DESIGN_PERSON_AND_ORGANIZATION_ASSIGNMENT ( #55, #24, ( #298 ) ) ;
#147 = FACE_OUTER_BOUND ( 'NONE', #137, .T. ) ;
#148 = COORDINATED_UNIVERSAL_TIME_OFFSET ( 1, 0, .AHEAD. ) ;
#149 = DIRECTION ( 'NONE',  ( 3.491481338843133355E-15, -1.224646799147352961E-16, 1.000000000000000000 ) ) ;
#150 = PERSON_AND_ORGANIZATION_ROLE ( 'classification_officer' ) ;
#151 = COORDINATED_UNIVERSAL_TIME_OFFSET ( 1, 0, .AHEAD. ) ;
#152 = CC_DESIGN_DATE_AND_TIME_ASSIGNMENT ( #287, #77, ( #74 ) ) ;
#153 = ORIENTED_EDGE ( 'NONE', *, *, #13, .T. ) ;
#154 = CARTESIAN_POINT ( 'NONE',  ( 1.772046959787181091E-14, -6.215504041505834086E-16, 5.075344210129247635 ) ) ;
#155 = FACE_OUTER_BOUND ( 'NONE', #292, .T. ) ;
#156 = CIRCLE ( 'NONE', #28, 0.3799999999999998934 ) ;
#157 = APPROVAL_PERSON_ORGANIZATION ( #51, #293, #98 ) ;
#158 = APPROVAL ( #26, 'UNSPECIFIED' ) ;
#159 = CARTESIAN_POINT ( 'NONE',  ( 3.263591079328455776E-14, -1.144713656224131229E-15, 9.347296355333845952 ) ) ;
#160 = APPLICATION_CONTEXT ( 'configuration controlled 3d designs of mechanical parts and assemblies' ) ;
#161 = DIRECTION ( 'NONE',  ( -3.491481338843133355E-15, 1.224646799147352961E-16, -1.000000000000000000 ) ) ;
#162 = CARTESIAN_POINT ( 'NONE',  ( 5.421157771908862273E-14, -1.901486179857616087E-15, 15.52681296502391639 ) ) ;
#163 = CC_DESIGN_PERSON_AND_ORGANIZATION_ASSIGNMENT ( #33, #168, ( #236 ) ) ;
#164 = PRODUCT_DEFINITION_SHAPE ( 'NONE', 'NONE',  #74 ) ;
#165 = PLANE ( 'NONE',  #16 ) ;
#166 = PERSON_AND_ORGANIZATION ( #206, #291 ) ;
#167 = DIRECTION ( 'NONE',  ( -4.547650399969867329E-31, -1.000000000000000000, -1.280049790419723850E-16 ) ) ;
#168 = PERSON_AND_ORGANIZATION_ROLE ( 'design_owner' ) ;
#169 = CARTESIAN_POINT ( 'NONE',  ( 3.491481338843132369E-16, -1.224646799147352498E-17, 0.09999999999999996392 ) ) ;
#170 = PERSON_AND_ORGANIZATION_ROLE ( 'design_supplier' ) ;
#171 = AXIS2_PLACEMENT_3D ( 'NONE', #169, #5, #284 ) ;
#172 = LOCAL_TIME ( 15, 49, 20.00000000000000000, #57 ) ;
#173 = LOCAL_TIME ( 15, 49, 20.00000000000000000, #151 ) ;
#174 = CARTESIAN_POINT ( 'NONE',  ( 5.421157771908862273E-14, -1.901486179857616087E-15, 15.52681296502391639 ) ) ;
#175 = CARTESIAN_POINT ( 'NONE',  ( 0.0000000000000000000, 0.0000000000000000000, 0.0000000000000000000 ) ) ;
#176 = APPROVAL_STATUS ( 'not_yet_approved' ) ;
#177 = CALENDAR_DATE ( 2021, 29, 11 ) ;
#178 = MANIFOLD_SOLID_BREP ( 'Corps-Déplacer/Copier1[1]', #41 ) ;
#179 = ORIENTED_EDGE ( 'NONE', *, *, #64, .F. ) ;
#180 = DIRECTION ( 'NONE',  ( 0.0000000000000000000, 1.000000000000000000, 0.0000000000000000000 ) ) ;
#181 = CIRCLE ( 'NONE', #3, 0.4234999999999999876 ) ;
#182 = ORIENTED_EDGE ( 'NONE', *, *, #272, .F. ) ;
#183 = ORIENTED_EDGE ( 'NONE', *, *, #64, .T. ) ;
#184 = MANIFOLD_SOLID_BREP ( 'Corps-Déplacer/Copier1[2]', #134 ) ;
#185 = ADVANCED_FACE ( 'NONE', ( #39, #155 ), #31, .T. ) ;
#186 = CARTESIAN_POINT ( 'NONE',  ( 1.772046959787181091E-14, -6.215504041505834086E-16, 5.075344210129247635 ) ) ;
#187 = CONICAL_SURFACE ( 'NONE', #267, 0.4234999999999993769, 0.5235987755982930425 ) ;
#188 =( GEOMETRIC_REPRESENTATION_CONTEXT ( 3 ) GLOBAL_UNCERTAINTY_ASSIGNED_CONTEXT ( ( #126 ) ) GLOBAL_UNIT_ASSIGNED_CONTEXT ( ( #224, #7, #4 ) ) REPRESENTATION_CONTEXT ( 'NONE', 'WORKASPACE' ) );
#189 = FACE_OUTER_BOUND ( 'NONE', #12, .T. ) ;
#190 = CARTESIAN_POINT ( 'NONE',  ( 0.0000000000000000000, 0.0000000000000000000, 0.0000000000000000000 ) ) ;
#191 = DIRECTION ( 'NONE',  ( -3.491481338843133355E-15, 1.224646799147352961E-16, -1.000000000000000000 ) ) ;
#192 = PERSON_AND_ORGANIZATION ( #206, #291 ) ;
#193 = CIRCLE ( 'NONE', #129, 1.499999999999997335 ) ;
#194 = CARTESIAN_POINT ( 'NONE',  ( 3.263591079328455776E-14, 0.4103844939755800225, 9.347296355333845952 ) ) ;
#195 = APPROVAL_ROLE ( '' ) ;
#196 = DIRECTION ( 'NONE',  ( 0.0000000000000000000, 1.000000000000000000, 0.0000000000000000000 ) ) ;
#197 = ADVANCED_FACE ( 'NONE', ( #52, #241 ), #187, .T. ) ;
#198 = FACE_OUTER_BOUND ( 'NONE', #59, .T. ) ;
#199 = CALENDAR_DATE ( 2021, 29, 11 ) ;
#200 = CIRCLE ( 'NONE', #171, 0.4234999999999993769 ) ;
#201 = CALENDAR_DATE ( 2021, 29, 11 ) ;
#202 = ADVANCED_FACE ( 'NONE', ( #147, #221 ), #139, .T. ) ;
#203 = CC_DESIGN_APPROVAL ( #118, ( #298 ) ) ;
#204 = ORIENTED_EDGE ( 'NONE', *, *, #254, .T. ) ;
#205 = EDGE_CURVE ( 'NONE', #121, #121, #249, .T. ) ;
#206 = PERSON ( 'UNSPECIFIED', 'UNSPECIFIED', 'UNSPECIFIED', ('UNSPECIFIED'), ('UNSPECIFIED'), ('UNSPECIFIED') ) ;
#207 = FACE_OUTER_BOUND ( 'NONE', #82, .T. ) ;
#208 = AXIS2_PLACEMENT_3D ( 'NONE', #159, #15, #257 ) ;
#209 = DIRECTION ( 'NONE',  ( -3.491481338843133355E-15, 1.224646799147352961E-16, -1.000000000000000000 ) ) ;
#210 = DIRECTION ( 'NONE',  ( 0.0000000000000000000, 1.000000000000000000, 0.0000000000000000000 ) ) ;
#211 = ORIENTED_EDGE ( 'NONE', *, *, #45, .T. ) ;
#212 = DIRECTION ( 'NONE',  ( 0.0000000000000000000, 1.000000000000000000, 0.0000000000000000000 ) ) ;
#213 = ADVANCED_FACE ( 'NONE', ( #93 ), #165, .F. ) ;
#214 = DIRECTION ( 'NONE',  ( 0.0000000000000000000, 1.000000000000000000, 0.0000000000000000000 ) ) ;
#215 = DIRECTION ( 'NONE',  ( -3.491481338843133355E-15, 1.224646799147352961E-16, -1.000000000000000000 ) ) ;
#216 = APPLICATION_PROTOCOL_DEFINITION ( 'international standard', 'config_control_design', 1994, #300 ) ;
#217 = PLANE ( 'NONE',  #61 ) ;
#218 = CIRCLE ( 'NONE', #135, 1.500000000000003331 ) ;
#219 = CARTESIAN_POINT ( 'NONE',  ( 1.326762908760390423E-13, 1.199999999999998845, 38.00000000000000000 ) ) ;
#220 = EDGE_CURVE ( 'NONE', #76, #76, #156, .T. ) ;
#221 = FACE_OUTER_BOUND ( 'NONE', #252, .T. ) ;
#222 = PERSON_AND_ORGANIZATION ( #206, #291 ) ;
#223 = VERTEX_POINT ( 'NONE', #8 ) ;
#224 =( LENGTH_UNIT ( ) NAMED_UNIT ( * ) SI_UNIT ( .MILLI., .METRE. ) );
#225 = LOCAL_TIME ( 15, 49, 20.00000000000000000, #148 ) ;
#226 = APPROVAL_PERSON_ORGANIZATION ( #81, #158, #195 ) ;
#227 = ORIENTED_EDGE ( 'NONE', *, *, #220, .F. ) ;
#228 = DIRECTION ( 'NONE',  ( 3.491481338843133355E-15, -1.224646799147352961E-16, 1.000000000000000000 ) ) ;
#229 = PRODUCT_RELATED_PRODUCT_CATEGORY ( 'detail', '', ( #236 ) ) ;
#230 = CIRCLE ( 'NONE', #235, 0.3657649730810376143 ) ;
#231 = EDGE_LOOP ( 'NONE', ( #62 ) ) ;
#232 = ORIENTED_EDGE ( 'NONE', *, *, #288, .F. ) ;
#233 = PLANE ( 'NONE',  #85 ) ;
#234 = FACE_OUTER_BOUND ( 'NONE', #270, .T. ) ;
#235 = AXIS2_PLACEMENT_3D ( 'NONE', #113, #63, #259 ) ;
#236 = PRODUCT ( '200028', '200028', '', ( #265 ) ) ;
#237 = DIRECTION ( 'NONE',  ( 3.491481338843133355E-15, -1.224646799147352961E-16, 1.000000000000000000 ) ) ;
#238 = COORDINATED_UNIVERSAL_TIME_OFFSET ( 1, 0, .AHEAD. ) ;
#239 = DIRECTION ( 'NONE',  ( -3.491481338843133355E-15, 1.224646799147352961E-16, -1.000000000000000000 ) ) ;
#240 = ADVANCED_FACE ( 'NONE', ( #25, #198 ), #79, .T. ) ;
#241 = FACE_OUTER_BOUND ( 'NONE', #112, .T. ) ;
#242 = CONICAL_SURFACE ( 'NONE', #120, 1.200000000000003286, 0.7853981633974453924 ) ;
#243 = CC_DESIGN_APPROVAL ( #158, ( #80 ) ) ;
#244 = DIRECTION ( 'NONE',  ( 3.491481338843133355E-15, -1.224646799147352961E-16, 1.000000000000000000 ) ) ;
#245 = DATE_AND_TIME ( #201, #114 ) ;
#246 = CARTESIAN_POINT ( 'NONE',  ( 5.421157771908862273E-14, 1.499999999999995559, 15.52681296502391639 ) ) ;
#247 = CC_DESIGN_DATE_AND_TIME_ASSIGNMENT ( #248, #286, ( #80 ) ) ;
#248 = DATE_AND_TIME ( #49, #66 ) ;
#249 = CIRCLE ( 'NONE', #128, 1.200000000000003286 ) ;
#250 = CC_DESIGN_SECURITY_CLASSIFICATION ( #80, ( #298 ) ) ;
#251 = AXIS2_PLACEMENT_3D ( 'NONE', #174, #244, #50 ) ;
#252 = EDGE_LOOP ( 'NONE', ( #296 ) ) ;
#253 = FACE_BOUND ( 'NONE', #136, .T. ) ;
#254 = EDGE_CURVE ( 'NONE', #223, #223, #200, .T. ) ;
#255 = ORIENTED_EDGE ( 'NONE', *, *, #97, .T. ) ;
#256 = TOROIDAL_SURFACE ( 'NONE', #125, 2.380000000000000338, 2.000000000000000000 ) ;
#257 = DIRECTION ( 'NONE',  ( 0.0000000000000000000, 1.000000000000000000, 0.0000000000000000000 ) ) ;
#258 = CARTESIAN_POINT ( 'NONE',  ( 1.745740669421566678E-14, 3.175741339786473276E-33, 5.000000000000000000 ) ) ;
#259 = DIRECTION ( 'NONE',  ( 4.275831445896957731E-31, 1.000000000000000000, 1.224646799147352961E-16 ) ) ;
#260 = CARTESIAN_POINT ( 'NONE',  ( 1.316288464743861212E-13, -4.616918432785520292E-15, 37.69999999999999574 ) ) ;
#261 = VERTEX_POINT ( 'NONE', #141 ) ;
#262 = ADVANCED_FACE ( 'NONE', ( #48 ), #217, .F. ) ;
#263 = CALENDAR_DATE ( 2021, 29, 11 ) ;
#264 = DIRECTION ( 'NONE',  ( -4.275831445896957731E-31, -1.000000000000000000, -1.224646799147352961E-16 ) ) ;
#265 = MECHANICAL_CONTEXT ( 'NONE', #300, 'mechanical' ) ;
#266 = DIRECTION ( 'NONE',  ( 4.275831445896957731E-31, 1.000000000000000000, 1.224646799147353207E-16 ) ) ;
#267 = AXIS2_PLACEMENT_3D ( 'NONE', #122, #149, #167 ) ;
#268 = ADVANCED_FACE ( 'NONE', ( #269 ), #23, .F. ) ;
#269 = FACE_OUTER_BOUND ( 'NONE', #40, .T. ) ;
#270 = EDGE_LOOP ( 'NONE', ( #255 ) ) ;
#271 = ORIENTED_EDGE ( 'NONE', *, *, #97, .F. ) ;
#272 = EDGE_CURVE ( 'NONE', #103, #103, #193, .T. ) ;
#273 = EDGE_LOOP ( 'NONE', ( #211 ) ) ;
#274 = CARTESIAN_POINT ( 'NONE',  ( 0.0000000000000000000, 0.0000000000000000000, 0.0000000000000000000 ) ) ;
#275 = CYLINDRICAL_SURFACE ( 'NONE', #145, 0.4234999999999997100 ) ;
#276 = FACE_OUTER_BOUND ( 'NONE', #109, .T. ) ;
#277 = DIRECTION ( 'NONE',  ( 0.0000000000000000000, 1.000000000000000000, 0.0000000000000000000 ) ) ;
#278 = DIRECTION ( 'NONE',  ( 0.0000000000000000000, 1.000000000000000000, 0.0000000000000000000 ) ) ;
#279 = APPROVAL_ROLE ( '' ) ;
#280 = CARTESIAN_POINT ( 'NONE',  ( 3.142333204958820020E-14, -1.102182119232617517E-15, 9.000000000000000000 ) ) ;
#281 = PERSON_AND_ORGANIZATION ( #206, #291 ) ;
#282 = CARTESIAN_POINT ( 'NONE',  ( 1.745740669421566678E-14, 3.175741339786473276E-33, 5.000000000000000000 ) ) ;
#283 = DIRECTION ( 'NONE',  ( 0.0000000000000000000, 0.0000000000000000000, 1.000000000000000000 ) ) ;
#284 = DIRECTION ( 'NONE',  ( 4.547650399969867329E-31, 1.000000000000000000, 1.280049790419723850E-16 ) ) ;
#285 = CIRCLE ( 'NONE', #208, 0.4103844939755811883 ) ;
#286 = DATE_TIME_ROLE ( 'classification_date' ) ;
#287 = DATE_AND_TIME ( #199, #225 ) ;
#288 = EDGE_CURVE ( 'NONE', #124, #124, #218, .T. ) ;
#289 = EDGE_LOOP ( 'NONE', ( #14 ) ) ;
#290 = AXIS2_PLACEMENT_3D ( 'NONE', #17, #209, #210 ) ;
#291 = ORGANIZATION ( 'UNSPECIFIED', 'UNSPECIFIED', '' ) ;
#292 = EDGE_LOOP ( 'NONE', ( #297 ) ) ;
#293 = APPROVAL ( #95, 'UNSPECIFIED' ) ;
#294 = DIRECTION ( 'NONE',  ( -3.491481338843133355E-15, 1.224646799147352961E-16, -1.000000000000000000 ) ) ;
#295 = FACE_OUTER_BOUND ( 'NONE', #273, .T. ) ;
#296 = ORIENTED_EDGE ( 'NONE', *, *, #288, .T. ) ;
#297 = ORIENTED_EDGE ( 'NONE', *, *, #220, .T. ) ;
#298 = PRODUCT_DEFINITION_FORMATION_WITH_SPECIFIED_SOURCE ( 'ANY', '', #236, .NOT_KNOWN. ) ;
#299 = DIRECTION ( 'NONE',  ( 0.0000000000000000000, 1.000000000000000000, 0.0000000000000000000 ) ) ;
#300 = APPLICATION_CONTEXT ( 'configuration controlled 3d designs of mechanical parts and assemblies' ) ;
#301 = DIRECTION ( 'NONE',  ( -4.275831445896957731E-31, -1.000000000000000000, -1.224646799147352961E-16 ) ) ;
#302 = EDGE_CURVE ( 'NONE', #10, #10, #181, .T. ) ;
#303 = DIRECTION ( 'NONE',  ( -3.491481338843133355E-15, 1.224646799147352961E-16, -1.000000000000000000 ) ) ;
ENDSEC;
END-ISO-10303-21;
