ISO-10303-21;
HEADER;
FILE_DESCRIPTION (( 'STEP AP203' ),
    '1' );
FILE_NAME ('200027.step',
    '2021-11-29T14:49:19',
    ( '' ),
    ( '' ),
    'SwSTEP 2.0',
    'SolidWorks 2019',
    '' );
FILE_SCHEMA (( 'CONFIG_CONTROL_DESIGN' ));
ENDSEC;

DATA;
#1 = APPLICATION_PROTOCOL_DEFINITION ( 'international standard', 'config_control_design', 1994, #250 ) ;
#2 = DIRECTION ( 'NONE',  ( -3.491481338843133355E-15, 1.224646799147352961E-16, -1.000000000000000000 ) ) ;
#3 = VERTEX_POINT ( 'NONE', #99 ) ;
#4 = DATE_AND_TIME ( #30, #146 ) ;
#5 = FACE_BOUND ( 'NONE', #180, .T. ) ;
#6 = DATE_AND_TIME ( #270, #67 ) ;
#7 = PRODUCT_DEFINITION_SHAPE ( 'NONE', 'NONE',  #14 ) ;
#8 = CIRCLE ( 'NONE', #85, 0.4050000000000001932 ) ;
#9 = EDGE_LOOP ( 'NONE', ( #232 ) ) ;
#10 = MANIFOLD_SOLID_BREP ( 'Corps-Déplacer/Copier1[2]', #106 ) ;
#11 = ORIENTED_EDGE ( 'NONE', *, *, #86, .F. ) ;
#12 = CARTESIAN_POINT ( 'NONE',  ( 6.982962677686266711E-16, -2.449293598294705613E-17, 0.1999999999999999833 ) ) ;
#13 = CIRCLE ( 'NONE', #229, 1.200000000000003286 ) ;
#14 = PRODUCT_DEFINITION ( 'UNKNOWN', '', #161, #153 ) ;
#15 = DIRECTION ( 'NONE',  ( -3.491481338843133355E-15, 1.224646799147352961E-16, -1.000000000000000000 ) ) ;
#16 = DIRECTION ( 'NONE',  ( 3.491481338843133355E-15, -1.224646799147352961E-16, 1.000000000000000000 ) ) ;
#17 = MANIFOLD_SOLID_BREP ( 'Corps-Déplacer/Copier1[1]', #240 ) ;
#18 = CARTESIAN_POINT ( 'NONE',  ( 5.371654835307572001E-14, -1.884122887038971749E-15, 15.38503091953346846 ) ) ;
#19 = CONICAL_SURFACE ( 'NONE', #91, 1.499999999999997335, 0.1745329251994260644 ) ;
#20 = PLANE ( 'NONE',  #121 ) ;
#21 = CARTESIAN_POINT ( 'NONE',  ( 6.982962677686268683E-16, 0.4484999999999993991, 0.2000000000000000389 ) ) ;
#22 = DATE_TIME_ROLE ( 'classification_date' ) ;
#23 = DIRECTION ( 'NONE',  ( 4.275831445896957731E-31, 1.000000000000000000, 1.224646799147352961E-16 ) ) ;
#24 = APPROVAL_DATE_TIME ( #241, #176 ) ;
#25 = EDGE_CURVE ( 'NONE', #285, #285, #260, .T. ) ;
#26 = CARTESIAN_POINT ( 'NONE',  ( 1.316288464743861212E-13, 1.499999999999998668, 37.69999999999999574 ) ) ;
#27 = AXIS2_PLACEMENT_3D ( 'NONE', #75, #234, #259 ) ;
#28 = AXIS2_PLACEMENT_3D ( 'NONE', #138, #203, #42 ) ;
#29 = APPROVAL_PERSON_ORGANIZATION ( #55, #163, #74 ) ;
#30 = CALENDAR_DATE ( 2021, 29, 11 ) ;
#31 = FACE_OUTER_BOUND ( 'NONE', #151, .T. ) ;
#32 = APPROVAL_STATUS ( 'not_yet_approved' ) ;
#33 =( LENGTH_UNIT ( ) NAMED_UNIT ( * ) SI_UNIT ( .MILLI., .METRE. ) );
#34 = EDGE_CURVE ( 'NONE', #266, #266, #8, .T. ) ;
#35 = PERSON_AND_ORGANIZATION ( #211, #293 ) ;
#36 = EDGE_LOOP ( 'NONE', ( #256 ) ) ;
#37 = AXIS2_PLACEMENT_3D ( 'NONE', #12, #114, #230 ) ;
#38 = ORIENTED_EDGE ( 'NONE', *, *, #225, .T. ) ;
#39 = ADVANCED_FACE ( 'NONE', ( #186, #111 ), #145, .T. ) ;
#40 = CIRCLE ( 'NONE', #208, 0.3330299461620758739 ) ;
#41 = SECURITY_CLASSIFICATION ( '', '', #222 ) ;
#42 = DIRECTION ( 'NONE',  ( 0.0000000000000000000, 1.000000000000000000, 0.0000000000000000000 ) ) ;
#43 = FACE_OUTER_BOUND ( 'NONE', #36, .T. ) ;
#44 = CARTESIAN_POINT ( 'NONE',  ( 3.263591079328456407E-14, -1.144713656224131427E-15, 9.347296355333847728 ) ) ;
#45 = ADVANCED_FACE ( 'NONE', ( #204, #47 ), #279, .T. ) ;
#46 = FACE_OUTER_BOUND ( 'NONE', #269, .T. ) ;
#47 = FACE_OUTER_BOUND ( 'NONE', #65, .T. ) ;
#48 = AXIS2_PLACEMENT_3D ( 'NONE', #170, #101, #53 ) ;
#49 = APPROVAL_PERSON_ORGANIZATION ( #76, #176, #96 ) ;
#50 = CARTESIAN_POINT ( 'NONE',  ( 3.263591079328456407E-14, 0.4353844939755805443, 9.347296355333847728 ) ) ;
#51 = FACE_OUTER_BOUND ( 'NONE', #174, .T. ) ;
#52 = CARTESIAN_POINT ( 'NONE',  ( 1.326762908760390423E-13, 1.199999999999998845, 38.00000000000000000 ) ) ;
#53 = DIRECTION ( 'NONE',  ( 4.294158181465414730E-31, 1.000000000000000000, 1.208698074119850533E-16 ) ) ;
#54 = CC_DESIGN_APPROVAL ( #163, ( #161 ) ) ;
#55 = PERSON_AND_ORGANIZATION ( #211, #293 ) ;
#56 = DIRECTION ( 'NONE',  ( 0.0000000000000000000, 1.000000000000000000, 0.0000000000000000000 ) ) ;
#57 = APPLICATION_PROTOCOL_DEFINITION ( 'international standard', 'config_control_design', 1994, #129 ) ;
#58 = ORIENTED_EDGE ( 'NONE', *, *, #25, .F. ) ;
#59 = CALENDAR_DATE ( 2021, 29, 11 ) ;
#60 = EDGE_LOOP ( 'NONE', ( #295 ) ) ;
#61 = ORIENTED_EDGE ( 'NONE', *, *, #86, .T. ) ;
#62 = CONICAL_SURFACE ( 'NONE', #299, 0.4049999999999994715, 0.5235987755982937086 ) ;
#63 = CARTESIAN_POINT ( 'NONE',  ( 0.0000000000000000000, 0.0000000000000000000, 0.0000000000000000000 ) ) ;
#64 = DIRECTION ( 'NONE',  ( -3.491481338843133355E-15, 1.224646799147352961E-16, -1.000000000000000000 ) ) ;
#65 = EDGE_LOOP ( 'NONE', ( #252 ) ) ;
#66 = CC_DESIGN_PERSON_AND_ORGANIZATION_ASSIGNMENT ( #143, #83, ( #161 ) ) ;
#67 = LOCAL_TIME ( 15, 49, 19.00000000000000000, #245 ) ;
#68 = DIRECTION ( 'NONE',  ( 3.491481338843133355E-15, -1.224646799147352961E-16, 1.000000000000000000 ) ) ;
#69 = DIRECTION ( 'NONE',  ( 4.275831445896957731E-31, 1.000000000000000000, 1.224646799147352961E-16 ) ) ;
#70 = DIRECTION ( 'NONE',  ( -3.491481338843133355E-15, 1.224646799147352961E-16, -1.000000000000000000 ) ) ;
#71 = CIRCLE ( 'NONE', #81, 0.4485000000000000098 ) ;
#72 = DIRECTION ( 'NONE',  ( -3.491481338843133355E-15, 1.224646799147352961E-16, -1.000000000000000000 ) ) ;
#73 = ADVANCED_FACE ( 'NONE', ( #46, #89 ), #181, .T. ) ;
#74 = APPROVAL_ROLE ( '' ) ;
#75 = CARTESIAN_POINT ( 'NONE',  ( 1.316288464743861212E-13, -4.616918432785520292E-15, 37.69999999999999574 ) ) ;
#76 = PERSON_AND_ORGANIZATION ( #211, #293 ) ;
#77 = DIRECTION ( 'NONE',  ( -3.491481338843133355E-15, 1.224646799147352961E-16, -1.000000000000000000 ) ) ;
#78 = PERSON_AND_ORGANIZATION_ROLE ( 'design_owner' ) ;
#79 = EDGE_CURVE ( 'NONE', #169, #169, #13, .T. ) ;
#80 = PLANE ( 'NONE',  #223 ) ;
#81 = AXIS2_PLACEMENT_3D ( 'NONE', #173, #262, #242 ) ;
#82 = CC_DESIGN_APPROVAL ( #297, ( #41 ) ) ;
#83 = PERSON_AND_ORGANIZATION_ROLE ( 'design_supplier' ) ;
#84 = DIRECTION ( 'NONE',  ( 1.000000000000000000, 0.0000000000000000000, 0.0000000000000000000 ) ) ;
#85 = AXIS2_PLACEMENT_3D ( 'NONE', #257, #15, #109 ) ;
#86 = EDGE_CURVE ( 'NONE', #124, #124, #183, .T. ) ;
#87 = CARTESIAN_POINT ( 'NONE',  ( 0.0000000000000000000, 0.0000000000000000000, 0.0000000000000000000 ) ) ;
#88 = ORIENTED_EDGE ( 'NONE', *, *, #202, .T. ) ;
#89 = FACE_OUTER_BOUND ( 'NONE', #291, .T. ) ;
#90 = CARTESIAN_POINT ( 'NONE',  ( 1.745740669421566678E-14, 3.363211312619204793E-33, 5.000000000000000000 ) ) ;
#91 = AXIS2_PLACEMENT_3D ( 'NONE', #18, #16, #233 ) ;
#92 = EDGE_LOOP ( 'NONE', ( #61 ) ) ;
#93 = FACE_OUTER_BOUND ( 'NONE', #60, .T. ) ;
#94 = CC_DESIGN_PERSON_AND_ORGANIZATION_ASSIGNMENT ( #284, #104, ( #41 ) ) ;
#95 = DIRECTION ( 'NONE',  ( 3.491481338843133355E-15, -1.224646799147352961E-16, 1.000000000000000000 ) ) ;
#96 = APPROVAL_ROLE ( '' ) ;
#97 = CARTESIAN_POINT ( 'NONE',  ( 5.371654835307572001E-14, 1.499999999999995559, 15.38503091953346846 ) ) ;
#98 = CARTESIAN_POINT ( 'NONE',  ( 0.0000000000000000000, 0.0000000000000000000, 0.0000000000000000000 ) ) ;
#99 = CARTESIAN_POINT ( 'NONE',  ( -9.463679131915806782E-32, 0.3330299461620758739, -2.710505431213761085E-17 ) ) ;
#100 = CALENDAR_DATE ( 2021, 29, 11 ) ;
#101 = DIRECTION ( 'NONE',  ( -3.491481338843133355E-15, 1.224646799147352961E-16, -1.000000000000000000 ) ) ;
#102 = MECHANICAL_CONTEXT ( 'NONE', #129, 'mechanical' ) ;
#103 = CIRCLE ( 'NONE', #48, 0.4484999999999993991 ) ;
#104 = PERSON_AND_ORGANIZATION_ROLE ( 'classification_officer' ) ;
#105 = ADVANCED_FACE ( 'NONE', ( #231, #134 ), #19, .T. ) ;
#106 = CLOSED_SHELL ( 'NONE', ( #261, #39, #73, #275 ) ) ;
#107 = EDGE_LOOP ( 'NONE', ( #58 ) ) ;
#108 = CYLINDRICAL_SURFACE ( 'NONE', #177, 1.500000000000000444 ) ;
#109 = DIRECTION ( 'NONE',  ( 0.0000000000000000000, 1.000000000000000000, 0.0000000000000000000 ) ) ;
#110 = CIRCLE ( 'NONE', #127, 0.4485000000000000098 ) ;
#111 = FACE_OUTER_BOUND ( 'NONE', #228, .T. ) ;
#112 = PLANE ( 'NONE',  #136 ) ;
#113 = ADVANCED_FACE ( 'NONE', ( #254, #258 ), #108, .T. ) ;
#114 = DIRECTION ( 'NONE',  ( 3.491481338843133355E-15, -1.224646799147352961E-16, 1.000000000000000000 ) ) ;
#115 =( GEOMETRIC_REPRESENTATION_CONTEXT ( 3 ) GLOBAL_UNCERTAINTY_ASSIGNED_CONTEXT ( ( #130 ) ) GLOBAL_UNIT_ASSIGNED_CONTEXT ( ( #33, #190, #193 ) ) REPRESENTATION_CONTEXT ( 'NONE', 'WORKASPACE' ) );
#116 = FACE_OUTER_BOUND ( 'NONE', #140, .T. ) ;
#117 = DIRECTION ( 'NONE',  ( -3.491481338843133355E-15, 1.224646799147352961E-16, -1.000000000000000000 ) ) ;
#118 = COORDINATED_UNIVERSAL_TIME_OFFSET ( 1, 0, .AHEAD. ) ;
#119 = SHAPE_DEFINITION_REPRESENTATION ( #7, #187 ) ;
#120 = AXIS2_PLACEMENT_3D ( 'NONE', #157, #201, #69 ) ;
#121 = AXIS2_PLACEMENT_3D ( 'NONE', #283, #77, #23 ) ;
#122 = VERTEX_POINT ( 'NONE', #21 ) ;
#123 = DIRECTION ( 'NONE',  ( 0.0000000000000000000, 0.0000000000000000000, 1.000000000000000000 ) ) ;
#124 = VERTEX_POINT ( 'NONE', #213 ) ;
#125 = PERSON_AND_ORGANIZATION ( #211, #293 ) ;
#126 = COORDINATED_UNIVERSAL_TIME_OFFSET ( 1, 0, .AHEAD. ) ;
#127 = AXIS2_PLACEMENT_3D ( 'NONE', #276, #298, #158 ) ;
#128 = ORIENTED_EDGE ( 'NONE', *, *, #236, .F. ) ;
#129 = APPLICATION_CONTEXT ( 'configuration controlled 3d designs of mechanical parts and assemblies' ) ;
#130 = UNCERTAINTY_MEASURE_WITH_UNIT (LENGTH_MEASURE( 1.000000000000000082E-05 ), #33, 'distance_accuracy_value', 'NONE');
#131 = EDGE_LOOP ( 'NONE', ( #273 ) ) ;
#132 = CIRCLE ( 'NONE', #27, 1.500000000000003331 ) ;
#133 = ORIENTED_EDGE ( 'NONE', *, *, #25, .T. ) ;
#134 = FACE_OUTER_BOUND ( 'NONE', #156, .T. ) ;
#135 = EDGE_LOOP ( 'NONE', ( #207 ) ) ;
#136 = AXIS2_PLACEMENT_3D ( 'NONE', #90, #68, #162 ) ;
#137 = AXIS2_PLACEMENT_3D ( 'NONE', #188, #70, #189 ) ;
#138 = CARTESIAN_POINT ( 'NONE',  ( 1.772046959787181091E-14, -6.215504041505834086E-16, 5.075344210129247635 ) ) ;
#139 = CARTESIAN_POINT ( 'NONE',  ( 5.371654835307572001E-14, -1.884122887038971749E-15, 15.38503091953346846 ) ) ;
#140 = EDGE_LOOP ( 'NONE', ( #133 ) ) ;
#141 = VERTEX_POINT ( 'NONE', #97 ) ;
#142 = DIRECTION ( 'NONE',  ( 3.491481338843133355E-15, -1.224646799147352961E-16, 1.000000000000000000 ) ) ;
#143 = PERSON_AND_ORGANIZATION ( #211, #293 ) ;
#144 = VERTEX_POINT ( 'NONE', #26 ) ;
#145 = CONICAL_SURFACE ( 'NONE', #37, 0.4484999999999993991, 0.5235987755982927094 ) ;
#146 = LOCAL_TIME ( 15, 49, 19.00000000000000000, #126 ) ;
#147 = CARTESIAN_POINT ( 'NONE',  ( 1.772046959787181091E-14, -6.215504041505834086E-16, 5.075344210129247635 ) ) ;
#148 = APPROVAL_DATE_TIME ( #246, #163 ) ;
#149 = CARTESIAN_POINT ( 'NONE',  ( 1.326762908760390423E-13, -4.653657836759941152E-15, 38.00000000000000000 ) ) ;
#150 = APPROVAL_STATUS ( 'not_yet_approved' ) ;
#151 = EDGE_LOOP ( 'NONE', ( #271 ) ) ;
#152 = EDGE_CURVE ( 'NONE', #216, #216, #110, .T. ) ;
#153 = DESIGN_CONTEXT ( 'detailed design', #250, 'design' ) ;
#154 = EDGE_LOOP ( 'NONE', ( #11 ) ) ;
#155 = ADVANCED_FACE ( 'NONE', ( #43 ), #112, .F. ) ;
#156 = EDGE_LOOP ( 'NONE', ( #88 ) ) ;
#157 = CARTESIAN_POINT ( 'NONE',  ( 0.0000000000000000000, 0.0000000000000000000, 0.0000000000000000000 ) ) ;
#158 = DIRECTION ( 'NONE',  ( 0.0000000000000000000, 1.000000000000000000, 0.0000000000000000000 ) ) ;
#159 = DIRECTION ( 'NONE',  ( -3.491481338843133355E-15, 1.224646799147352961E-16, -1.000000000000000000 ) ) ;
#160 = CONICAL_SURFACE ( 'NONE', #171, 1.200000000000003286, 0.7853981633974453924 ) ;
#161 = PRODUCT_DEFINITION_FORMATION_WITH_SPECIFIED_SOURCE ( 'ANY', '', #244, .NOT_KNOWN. ) ;
#162 = DIRECTION ( 'NONE',  ( -4.275831445896957731E-31, -1.000000000000000000, -1.224646799147352961E-16 ) ) ;
#163 = APPROVAL ( #150, 'UNSPECIFIED' ) ;
#164 = DIRECTION ( 'NONE',  ( 0.0000000000000000000, 1.000000000000000000, 0.0000000000000000000 ) ) ;
#165 = FACE_BOUND ( 'NONE', #92, .T. ) ;
#166 = CC_DESIGN_SECURITY_CLASSIFICATION ( #41, ( #161 ) ) ;
#167 = FACE_OUTER_BOUND ( 'NONE', #198, .T. ) ;
#168 = CALENDAR_DATE ( 2021, 29, 11 ) ;
#169 = VERTEX_POINT ( 'NONE', #52 ) ;
#170 = CARTESIAN_POINT ( 'NONE',  ( 6.982962677686266711E-16, -2.449293598294705613E-17, 0.1999999999999999833 ) ) ;
#171 = AXIS2_PLACEMENT_3D ( 'NONE', #149, #117, #194 ) ;
#172 = LOCAL_TIME ( 15, 49, 19.00000000000000000, #118 ) ;
#173 = CARTESIAN_POINT ( 'NONE',  ( 1.745740669421566678E-14, -6.123233995736765296E-16, 5.000000000000000000 ) ) ;
#174 = EDGE_LOOP ( 'NONE', ( #253 ) ) ;
#175 = PERSON_AND_ORGANIZATION_ROLE ( 'creator' ) ;
#176 = APPROVAL ( #264, 'UNSPECIFIED' ) ;
#177 = AXIS2_PLACEMENT_3D ( 'NONE', #87, #178, #277 ) ;
#178 = DIRECTION ( 'NONE',  ( -3.491481338843133355E-15, 1.224646799147352961E-16, -1.000000000000000000 ) ) ;
#179 = AXIS2_PLACEMENT_3D ( 'NONE', #98, #123, #84 ) ;
#180 = EDGE_LOOP ( 'NONE', ( #200 ) ) ;
#181 = CYLINDRICAL_SURFACE ( 'NONE', #120, 0.4484999999999996767 ) ;
#182 = EDGE_LOOP ( 'NONE', ( #128 ) ) ;
#183 = CIRCLE ( 'NONE', #28, 0.4049999999999994715 ) ;
#184 = TOROIDAL_SURFACE ( 'NONE', #137, 2.405000000000000249, 2.000000000000000000 ) ;
#185 = PRODUCT_RELATED_PRODUCT_CATEGORY ( 'detail', '', ( #244 ) ) ;
#186 = FACE_BOUND ( 'NONE', #182, .T. ) ;
#187 = ADVANCED_BREP_SHAPE_REPRESENTATION ( '200027', ( #17, #10, #179 ), #115 ) ;
#188 = CARTESIAN_POINT ( 'NONE',  ( 3.142333204958820020E-14, -1.301042606982605321E-15, 9.000000000000000000 ) ) ;
#189 = DIRECTION ( 'NONE',  ( 4.275831445896958607E-31, 1.000000000000000000, 1.224646799147352961E-16 ) ) ;
#190 =( NAMED_UNIT ( * ) PLANE_ANGLE_UNIT ( ) SI_UNIT ( $, .RADIAN. ) );
#191 = FACE_OUTER_BOUND ( 'NONE', #224, .T. ) ;
#192 = CC_DESIGN_DATE_AND_TIME_ASSIGNMENT ( #6, #22, ( #41 ) ) ;
#193 =( NAMED_UNIT ( * ) SI_UNIT ( $, .STERADIAN. ) SOLID_ANGLE_UNIT ( ) );
#194 = DIRECTION ( 'NONE',  ( 0.0000000000000000000, 1.000000000000000000, 0.0000000000000000000 ) ) ;
#195 = DIRECTION ( 'NONE',  ( -4.275831445896957731E-31, -1.000000000000000000, -1.224646799147352961E-16 ) ) ;
#196 = CC_DESIGN_PERSON_AND_ORGANIZATION_ASSIGNMENT ( #289, #78, ( #244 ) ) ;
#197 = COORDINATED_UNIVERSAL_TIME_OFFSET ( 1, 0, .AHEAD. ) ;
#198 = EDGE_LOOP ( 'NONE', ( #301 ) ) ;
#199 = LOCAL_TIME ( 15, 49, 19.00000000000000000, #214 ) ;
#200 = ORIENTED_EDGE ( 'NONE', *, *, #79, .T. ) ;
#201 = DIRECTION ( 'NONE',  ( -3.491481338843133355E-15, 1.224646799147352961E-16, -1.000000000000000000 ) ) ;
#202 = EDGE_CURVE ( 'NONE', #141, #141, #255, .T. ) ;
#203 = DIRECTION ( 'NONE',  ( -3.491481338843133355E-15, 1.224646799147352961E-16, -1.000000000000000000 ) ) ;
#204 = FACE_OUTER_BOUND ( 'NONE', #154, .T. ) ;
#205 = DIRECTION ( 'NONE',  ( 0.0000000000000000000, 1.000000000000000000, 0.0000000000000000000 ) ) ;
#206 = EDGE_CURVE ( 'NONE', #144, #144, #132, .T. ) ;
#207 = ORIENTED_EDGE ( 'NONE', *, *, #202, .F. ) ;
#208 = AXIS2_PLACEMENT_3D ( 'NONE', #209, #72, #288 ) ;
#209 = CARTESIAN_POINT ( 'NONE',  ( -2.370347829416755437E-31, 8.314060997166696266E-33, -6.788946007089775549E-17 ) ) ;
#210 = CARTESIAN_POINT ( 'NONE',  ( 1.745740669421566678E-14, 3.363211312619204793E-33, 5.000000000000000000 ) ) ;
#211 = PERSON ( 'UNSPECIFIED', 'UNSPECIFIED', 'UNSPECIFIED', ('UNSPECIFIED'), ('UNSPECIFIED'), ('UNSPECIFIED') ) ;
#212 = ADVANCED_FACE ( 'NONE', ( #191, #165 ), #62, .T. ) ;
#213 = CARTESIAN_POINT ( 'NONE',  ( 1.772046959787181091E-14, 0.4049999999999989164, 5.075344210129247635 ) ) ;
#214 = COORDINATED_UNIVERSAL_TIME_OFFSET ( 1, 0, .AHEAD. ) ;
#215 = LOCAL_TIME ( 15, 49, 19.00000000000000000, #197 ) ;
#216 = VERTEX_POINT ( 'NONE', #282 ) ;
#217 = PERSON_AND_ORGANIZATION ( #211, #293 ) ;
#218 = DIRECTION ( 'NONE',  ( 0.0000000000000000000, 1.000000000000000000, 0.0000000000000000000 ) ) ;
#219 = ADVANCED_FACE ( 'NONE', ( #167, #5 ), #160, .T. ) ;
#220 = DATE_AND_TIME ( #168, #172 ) ;
#221 = CARTESIAN_POINT ( 'NONE',  ( 1.745740669421566678E-14, 0.4484999999999993991, 5.000000000000000000 ) ) ;
#222 = SECURITY_CLASSIFICATION_LEVEL ( 'unclassified' ) ;
#223 = AXIS2_PLACEMENT_3D ( 'NONE', #210, #95, #195 ) ;
#224 = EDGE_LOOP ( 'NONE', ( #248 ) ) ;
#225 = EDGE_CURVE ( 'NONE', #122, #122, #103, .T. ) ;
#226 = AXIS2_PLACEMENT_3D ( 'NONE', #63, #280, #296 ) ;
#227 = APPROVAL_PERSON_ORGANIZATION ( #35, #297, #290 ) ;
#228 = EDGE_LOOP ( 'NONE', ( #38 ) ) ;
#229 = AXIS2_PLACEMENT_3D ( 'NONE', #278, #159, #164 ) ;
#230 = DIRECTION ( 'NONE',  ( -4.294158181465414730E-31, -1.000000000000000000, -1.208698074119850533E-16 ) ) ;
#231 = FACE_BOUND ( 'NONE', #107, .T. ) ;
#232 = ORIENTED_EDGE ( 'NONE', *, *, #34, .F. ) ;
#233 = DIRECTION ( 'NONE',  ( 0.0000000000000000000, -1.000000000000000000, 0.0000000000000000000 ) ) ;
#234 = DIRECTION ( 'NONE',  ( -3.491481338843133355E-15, 1.224646799147352961E-16, -1.000000000000000000 ) ) ;
#235 = PERSON_AND_ORGANIZATION_ROLE ( 'creator' ) ;
#236 = EDGE_CURVE ( 'NONE', #3, #3, #40, .T. ) ;
#237 = CARTESIAN_POINT ( 'NONE',  ( -1.185173914708377718E-31, 4.157030498583348133E-33, -3.394473003544887774E-17 ) ) ;
#238 = APPROVAL_DATE_TIME ( #220, #297 ) ;
#239 = PLANE ( 'NONE',  #251 ) ;
#240 = CLOSED_SHELL ( 'NONE', ( #155, #212, #45, #286, #105, #113, #219, #281 ) ) ;
#241 = DATE_AND_TIME ( #100, #215 ) ;
#242 = DIRECTION ( 'NONE',  ( 0.0000000000000000000, 1.000000000000000000, 0.0000000000000000000 ) ) ;
#243 = EDGE_CURVE ( 'NONE', #287, #287, #71, .T. ) ;
#244 = PRODUCT ( '200027', '200027', '', ( #102 ) ) ;
#245 = COORDINATED_UNIVERSAL_TIME_OFFSET ( 1, 0, .AHEAD. ) ;
#246 = DATE_AND_TIME ( #59, #199 ) ;
#247 = AXIS2_PLACEMENT_3D ( 'NONE', #44, #64, #205 ) ;
#248 = ORIENTED_EDGE ( 'NONE', *, *, #243, .F. ) ;
#249 = CC_DESIGN_DATE_AND_TIME_ASSIGNMENT ( #4, #267, ( #14 ) ) ;
#250 = APPLICATION_CONTEXT ( 'configuration controlled 3d designs of mechanical parts and assemblies' ) ;
#251 = AXIS2_PLACEMENT_3D ( 'NONE', #237, #142, #268 ) ;
#252 = ORIENTED_EDGE ( 'NONE', *, *, #34, .T. ) ;
#253 = ORIENTED_EDGE ( 'NONE', *, *, #236, .T. ) ;
#254 = FACE_OUTER_BOUND ( 'NONE', #135, .T. ) ;
#255 = CIRCLE ( 'NONE', #292, 1.499999999999997335 ) ;
#256 = ORIENTED_EDGE ( 'NONE', *, *, #243, .T. ) ;
#257 = CARTESIAN_POINT ( 'NONE',  ( 3.142333204958820020E-14, -1.102182119232617517E-15, 9.000000000000000000 ) ) ;
#258 = FACE_OUTER_BOUND ( 'NONE', #131, .T. ) ;
#259 = DIRECTION ( 'NONE',  ( 0.0000000000000000000, 1.000000000000000000, 0.0000000000000000000 ) ) ;
#260 = CIRCLE ( 'NONE', #247, 0.4353844939755816545 ) ;
#261 = ADVANCED_FACE ( 'NONE', ( #51 ), #239, .F. ) ;
#262 = DIRECTION ( 'NONE',  ( -3.491481338843133355E-15, 1.224646799147352961E-16, -1.000000000000000000 ) ) ;
#263 = DIRECTION ( 'NONE',  ( -3.491481338843133355E-15, 1.224646799147352961E-16, -1.000000000000000000 ) ) ;
#264 = APPROVAL_STATUS ( 'not_yet_approved' ) ;
#265 = CC_DESIGN_PERSON_AND_ORGANIZATION_ASSIGNMENT ( #217, #175, ( #14 ) ) ;
#266 = VERTEX_POINT ( 'NONE', #303 ) ;
#267 = DATE_TIME_ROLE ( 'creation_date' ) ;
#268 = DIRECTION ( 'NONE',  ( -4.275831445896957731E-31, -1.000000000000000000, -1.224646799147352961E-16 ) ) ;
#269 = EDGE_LOOP ( 'NONE', ( #274 ) ) ;
#270 = CALENDAR_DATE ( 2021, 29, 11 ) ;
#271 = ORIENTED_EDGE ( 'NONE', *, *, #152, .F. ) ;
#272 = CC_DESIGN_PERSON_AND_ORGANIZATION_ASSIGNMENT ( #125, #235, ( #161 ) ) ;
#273 = ORIENTED_EDGE ( 'NONE', *, *, #206, .T. ) ;
#274 = ORIENTED_EDGE ( 'NONE', *, *, #225, .F. ) ;
#275 = ADVANCED_FACE ( 'NONE', ( #31 ), #80, .T. ) ;
#276 = CARTESIAN_POINT ( 'NONE',  ( 1.745740669421566678E-14, -6.123233995736765296E-16, 5.000000000000000000 ) ) ;
#277 = DIRECTION ( 'NONE',  ( 4.275831445896957731E-31, 1.000000000000000000, 1.224646799147353207E-16 ) ) ;
#278 = CARTESIAN_POINT ( 'NONE',  ( 1.326762908760390423E-13, -4.653657836759941152E-15, 38.00000000000000000 ) ) ;
#279 = CYLINDRICAL_SURFACE ( 'NONE', #226, 0.4049999999999998601 ) ;
#280 = DIRECTION ( 'NONE',  ( -3.491481338843133355E-15, 1.224646799147352961E-16, -1.000000000000000000 ) ) ;
#281 = ADVANCED_FACE ( 'NONE', ( #93 ), #20, .F. ) ;
#282 = CARTESIAN_POINT ( 'NONE',  ( 1.745740669421566678E-14, 0.4484999999999993991, 5.000000000000000000 ) ) ;
#283 = CARTESIAN_POINT ( 'NONE',  ( 1.326762908760390423E-13, 8.998558695971099120E-33, 38.00000000000000000 ) ) ;
#284 = PERSON_AND_ORGANIZATION ( #211, #293 ) ;
#285 = VERTEX_POINT ( 'NONE', #50 ) ;
#286 = ADVANCED_FACE ( 'NONE', ( #302, #116 ), #184, .F. ) ;
#287 = VERTEX_POINT ( 'NONE', #221 ) ;
#288 = DIRECTION ( 'NONE',  ( 4.275831445896957731E-31, 1.000000000000000000, 1.224646799147352961E-16 ) ) ;
#289 = PERSON_AND_ORGANIZATION ( #211, #293 ) ;
#290 = APPROVAL_ROLE ( '' ) ;
#291 = EDGE_LOOP ( 'NONE', ( #294 ) ) ;
#292 = AXIS2_PLACEMENT_3D ( 'NONE', #139, #2, #218 ) ;
#293 = ORGANIZATION ( 'UNSPECIFIED', 'UNSPECIFIED', '' ) ;
#294 = ORIENTED_EDGE ( 'NONE', *, *, #152, .T. ) ;
#295 = ORIENTED_EDGE ( 'NONE', *, *, #79, .F. ) ;
#296 = DIRECTION ( 'NONE',  ( 4.275831445896957731E-31, 1.000000000000000000, 1.224646799147352961E-16 ) ) ;
#297 = APPROVAL ( #32, 'UNSPECIFIED' ) ;
#298 = DIRECTION ( 'NONE',  ( -3.491481338843133355E-15, 1.224646799147352961E-16, -1.000000000000000000 ) ) ;
#299 = AXIS2_PLACEMENT_3D ( 'NONE', #147, #263, #56 ) ;
#300 = CC_DESIGN_APPROVAL ( #176, ( #14 ) ) ;
#301 = ORIENTED_EDGE ( 'NONE', *, *, #206, .F. ) ;
#302 = FACE_OUTER_BOUND ( 'NONE', #9, .T. ) ;
#303 = CARTESIAN_POINT ( 'NONE',  ( 3.142333204958820020E-14, 0.4049999999999991385, 9.000000000000000000 ) ) ;
ENDSEC;
END-ISO-10303-21;
