ISO-10303-21;
HEADER;
FILE_DESCRIPTION (( 'STEP AP203' ),
    '1' );
FILE_NAME ('200026.step',
    '2021-11-29T14:49:18',
    ( '' ),
    ( '' ),
    'SwSTEP 2.0',
    'SolidWorks 2019',
    '' );
FILE_SCHEMA (( 'CONFIG_CONTROL_DESIGN' ));
ENDSEC;

DATA;
#1 = APPROVAL_DATE_TIME ( #82, #141 ) ;
#2 = DIRECTION ( 'NONE',  ( 4.275831445896957731E-31, 1.000000000000000000, 1.224646799147352961E-16 ) ) ;
#3 = AXIS2_PLACEMENT_3D ( 'NONE', #280, #187, #48 ) ;
#4 = COORDINATED_UNIVERSAL_TIME_OFFSET ( 1, 0, .AHEAD. ) ;
#5 = CARTESIAN_POINT ( 'NONE',  ( 3.491481338843134341E-16, 0.4434999999999993947, 0.1000000000000000194 ) ) ;
#6 = APPROVAL_DATE_TIME ( #118, #49 ) ;
#7 = CARTESIAN_POINT ( 'NONE',  ( 3.142333204958820020E-14, 0.3999999999999988565, 9.000000000000000000 ) ) ;
#8 = CALENDAR_DATE ( 2021, 29, 11 ) ;
#9 = EDGE_CURVE ( 'NONE', #167, #167, #15, .T. ) ;
#10 = AXIS2_PLACEMENT_3D ( 'NONE', #296, #274, #90 ) ;
#11 = COORDINATED_UNIVERSAL_TIME_OFFSET ( 1, 0, .AHEAD. ) ;
#12 = ORIENTED_EDGE ( 'NONE', *, *, #298, .F. ) ;
#13 = ORIENTED_EDGE ( 'NONE', *, *, #37, .T. ) ;
#14 = DIRECTION ( 'NONE',  ( -3.491481338843133355E-15, 1.224646799147352961E-16, -1.000000000000000000 ) ) ;
#15 = CIRCLE ( 'NONE', #33, 0.3999999999999999667 ) ;
#16 = EDGE_LOOP ( 'NONE', ( #114 ) ) ;
#17 = CARTESIAN_POINT ( 'NONE',  ( 0.0000000000000000000, 0.0000000000000000000, 0.0000000000000000000 ) ) ;
#18 = CARTESIAN_POINT ( 'NONE',  ( 0.0000000000000000000, 0.0000000000000000000, 0.0000000000000000000 ) ) ;
#19 = AXIS2_PLACEMENT_3D ( 'NONE', #38, #256, #279 ) ;
#20 = DIRECTION ( 'NONE',  ( -3.491481338843133355E-15, 1.224646799147352961E-16, -1.000000000000000000 ) ) ;
#21 = DIRECTION ( 'NONE',  ( -3.491481338843133355E-15, 1.224646799147352961E-16, -1.000000000000000000 ) ) ;
#22 = DATE_AND_TIME ( #284, #202 ) ;
#23 = CARTESIAN_POINT ( 'NONE',  ( 1.326762908760390423E-13, 1.199999999999998845, 38.00000000000000000 ) ) ;
#24 = PERSON_AND_ORGANIZATION_ROLE ( 'classification_officer' ) ;
#25 = DIRECTION ( 'NONE',  ( -3.491481338843133355E-15, 1.224646799147352961E-16, -1.000000000000000000 ) ) ;
#26 = CLOSED_SHELL ( 'NONE', ( #201, #276, #273, #173 ) ) ;
#27 = AXIS2_PLACEMENT_3D ( 'NONE', #194, #21, #219 ) ;
#28 = APPROVAL_PERSON_ORGANIZATION ( #30, #141, #220 ) ;
#29 = FACE_OUTER_BOUND ( 'NONE', #147, .T. ) ;
#30 = PERSON_AND_ORGANIZATION ( #228, #293 ) ;
#31 = SHAPE_DEFINITION_REPRESENTATION ( #166, #34 ) ;
#32 = EDGE_LOOP ( 'NONE', ( #68 ) ) ;
#33 = AXIS2_PLACEMENT_3D ( 'NONE', #181, #178, #255 ) ;
#34 = ADVANCED_BREP_SHAPE_REPRESENTATION ( '200026', ( #109, #103, #215 ), #222 ) ;
#35 = CONICAL_SURFACE ( 'NONE', #177, 0.3999999999999995226, 0.5235987755982931535 ) ;
#36 = LOCAL_TIME ( 15, 49, 18.00000000000000000, #4 ) ;
#37 = EDGE_CURVE ( 'NONE', #138, #138, #299, .T. ) ;
#38 = CARTESIAN_POINT ( 'NONE',  ( 1.772046959787181091E-14, -6.215504041505834086E-16, 5.075344210129247635 ) ) ;
#39 = CARTESIAN_POINT ( 'NONE',  ( 1.745740669421566678E-14, -6.123233995736765296E-16, 5.000000000000000000 ) ) ;
#40 = ADVANCED_FACE ( 'NONE', ( #203, #204 ), #183, .T. ) ;
#41 = DIRECTION ( 'NONE',  ( 4.275831445896957731E-31, 1.000000000000000000, 1.224646799147352961E-16 ) ) ;
#42 = DIRECTION ( 'NONE',  ( 4.275831445896957731E-31, 1.000000000000000000, 1.224646799147352961E-16 ) ) ;
#43 = PRODUCT ( '200026', '200026', '', ( #245 ) ) ;
#44 = CARTESIAN_POINT ( 'NONE',  ( 1.326762908760390423E-13, 8.998558695971099120E-33, 38.00000000000000000 ) ) ;
#45 = CC_DESIGN_SECURITY_CLASSIFICATION ( #169, ( #144 ) ) ;
#46 = AXIS2_PLACEMENT_3D ( 'NONE', #17, #91, #67 ) ;
#47 = CIRCLE ( 'NONE', #3, 1.499999999999997335 ) ;
#48 = DIRECTION ( 'NONE',  ( 0.0000000000000000000, 1.000000000000000000, 0.0000000000000000000 ) ) ;
#49 = APPROVAL ( #124, 'UNSPECIFIED' ) ;
#50 = CARTESIAN_POINT ( 'NONE',  ( 1.745740669421566678E-14, 3.325717318052658763E-33, 5.000000000000000000 ) ) ;
#51 = PERSON_AND_ORGANIZATION ( #228, #293 ) ;
#52 = CARTESIAN_POINT ( 'NONE',  ( 5.381555422627829803E-14, -1.887595545602700538E-15, 15.41338732863155769 ) ) ;
#53 = APPROVAL_STATUS ( 'not_yet_approved' ) ;
#54 = ADVANCED_FACE ( 'NONE', ( #63, #154 ), #35, .T. ) ;
#55 = CARTESIAN_POINT ( 'NONE',  ( -1.649466002625494648E-31, 5.785547921865743561E-33, -4.724258395068576583E-17 ) ) ;
#56 = PERSON_AND_ORGANIZATION ( #228, #293 ) ;
#57 = CARTESIAN_POINT ( 'NONE',  ( 0.0000000000000000000, 0.0000000000000000000, 0.0000000000000000000 ) ) ;
#58 = APPROVAL_ROLE ( '' ) ;
#59 = EDGE_LOOP ( 'NONE', ( #115 ) ) ;
#60 = CARTESIAN_POINT ( 'NONE',  ( 0.0000000000000000000, 0.0000000000000000000, 0.0000000000000000000 ) ) ;
#61 = ORIENTED_EDGE ( 'NONE', *, *, #189, .F. ) ;
#62 = CIRCLE ( 'NONE', #27, 1.200000000000003286 ) ;
#63 = FACE_OUTER_BOUND ( 'NONE', #252, .T. ) ;
#64 = DIRECTION ( 'NONE',  ( 0.0000000000000000000, 1.000000000000000000, 0.0000000000000000000 ) ) ;
#65 = EDGE_CURVE ( 'NONE', #216, #216, #262, .T. ) ;
#66 = LOCAL_TIME ( 15, 49, 18.00000000000000000, #143 ) ;
#67 = DIRECTION ( 'NONE',  ( 4.275831445896957731E-31, 1.000000000000000000, 1.224646799147353207E-16 ) ) ;
#68 = ORIENTED_EDGE ( 'NONE', *, *, #257, .F. ) ;
#69 = CARTESIAN_POINT ( 'NONE',  ( 3.491481338843132369E-16, -1.224646799147352498E-17, 0.09999999999999996392 ) ) ;
#70 = APPROVAL ( #53, 'UNSPECIFIED' ) ;
#71 = AXIS2_PLACEMENT_3D ( 'NONE', #57, #20, #116 ) ;
#72 = DIRECTION ( 'NONE',  ( -4.275831445896957731E-31, -1.000000000000000000, -1.224646799147352961E-16 ) ) ;
#73 = COORDINATED_UNIVERSAL_TIME_OFFSET ( 1, 0, .AHEAD. ) ;
#74 = VERTEX_POINT ( 'NONE', #5 ) ;
#75 = DATE_TIME_ROLE ( 'classification_date' ) ;
#76 = ADVANCED_FACE ( 'NONE', ( #295 ), #260, .F. ) ;
#77 = CARTESIAN_POINT ( 'NONE',  ( 3.491481338843132369E-16, -1.224646799147352498E-17, 0.09999999999999996392 ) ) ;
#78 = PERSON_AND_ORGANIZATION ( #228, #293 ) ;
#79 = VERTEX_POINT ( 'NONE', #104 ) ;
#80 = AXIS2_PLACEMENT_3D ( 'NONE', #96, #171, #268 ) ;
#81 = APPROVAL_PERSON_ORGANIZATION ( #78, #70, #58 ) ;
#82 = DATE_AND_TIME ( #8, #66 ) ;
#83 = ORIENTED_EDGE ( 'NONE', *, *, #9, .T. ) ;
#84 = PERSON_AND_ORGANIZATION ( #228, #293 ) ;
#85 = DESIGN_CONTEXT ( 'detailed design', #246, 'design' ) ;
#86 = ORIENTED_EDGE ( 'NONE', *, *, #290, .F. ) ;
#87 = EDGE_LOOP ( 'NONE', ( #180 ) ) ;
#88 = DIRECTION ( 'NONE',  ( 4.275831445896957731E-31, 1.000000000000000000, 1.224646799147352961E-16 ) ) ;
#89 = EDGE_LOOP ( 'NONE', ( #12 ) ) ;
#90 = DIRECTION ( 'NONE',  ( 0.0000000000000000000, 1.000000000000000000, 0.0000000000000000000 ) ) ;
#91 = DIRECTION ( 'NONE',  ( -3.491481338843133355E-15, 1.224646799147352961E-16, -1.000000000000000000 ) ) ;
#92 = AXIS2_PLACEMENT_3D ( 'NONE', #39, #14, #64 ) ;
#93 = DIRECTION ( 'NONE',  ( 0.0000000000000000000, 1.000000000000000000, 0.0000000000000000000 ) ) ;
#94 = CC_DESIGN_PERSON_AND_ORGANIZATION_ASSIGNMENT ( #120, #24, ( #169 ) ) ;
#95 = DIRECTION ( 'NONE',  ( 0.0000000000000000000, -1.000000000000000000, 0.0000000000000000000 ) ) ;
#96 = CARTESIAN_POINT ( 'NONE',  ( -8.247330013127473241E-32, 2.892773960932871781E-33, -2.362129197534288291E-17 ) ) ;
#97 = DIRECTION ( 'NONE',  ( 4.342570336837065673E-31, 1.000000000000000000, 1.222324884425598641E-16 ) ) ;
#98 = EDGE_CURVE ( 'NONE', #265, #265, #184, .T. ) ;
#99 = DATE_AND_TIME ( #271, #36 ) ;
#100 = DIRECTION ( 'NONE',  ( 3.491481338843133355E-15, -1.224646799147352961E-16, 1.000000000000000000 ) ) ;
#101 = DIRECTION ( 'NONE',  ( -4.275831445896957731E-31, -1.000000000000000000, -1.224646799147352961E-16 ) ) ;
#102 = PERSON_AND_ORGANIZATION_ROLE ( 'creator' ) ;
#103 = MANIFOLD_SOLID_BREP ( 'Corps-Déplacer/Copier1[2]', #26 ) ;
#104 = CARTESIAN_POINT ( 'NONE',  ( 5.381555422627829803E-14, 1.499999999999995559, 15.41338732863155769 ) ) ;
#105 = CIRCLE ( 'NONE', #221, 0.3857649730810377431 ) ;
#106 = DATE_AND_TIME ( #267, #161 ) ;
#107 = ADVANCED_FACE ( 'NONE', ( #113, #205 ), #250, .T. ) ;
#108 = AXIS2_PLACEMENT_3D ( 'NONE', #137, #133, #230 ) ;
#109 = MANIFOLD_SOLID_BREP ( 'Corps-Déplacer/Copier1[1]', #225 ) ;
#110 = ORIENTED_EDGE ( 'NONE', *, *, #206, .F. ) ;
#111 = ORIENTED_EDGE ( 'NONE', *, *, #9, .F. ) ;
#112 = CIRCLE ( 'NONE', #174, 0.4435000000000000053 ) ;
#113 = FACE_OUTER_BOUND ( 'NONE', #254, .T. ) ;
#114 = ORIENTED_EDGE ( 'NONE', *, *, #37, .F. ) ;
#115 = ORIENTED_EDGE ( 'NONE', *, *, #206, .T. ) ;
#116 = DIRECTION ( 'NONE',  ( 4.275831445896957731E-31, 1.000000000000000000, 1.224646799147352961E-16 ) ) ;
#117 = DIRECTION ( 'NONE',  ( 3.491481338843133355E-15, -1.224646799147352961E-16, 1.000000000000000000 ) ) ;
#118 = DATE_AND_TIME ( #264, #226 ) ;
#119 = CARTESIAN_POINT ( 'NONE',  ( 3.263591079328455776E-14, -1.144713656224131229E-15, 9.347296355333845952 ) ) ;
#120 = PERSON_AND_ORGANIZATION ( #228, #293 ) ;
#121 = CONICAL_SURFACE ( 'NONE', #198, 1.499999999999997335, 0.1745329251994260922 ) ;
#122 = FACE_BOUND ( 'NONE', #132, .T. ) ;
#123 = DIRECTION ( 'NONE',  ( -4.342570336837065673E-31, -1.000000000000000000, -1.222324884425598641E-16 ) ) ;
#124 = APPROVAL_STATUS ( 'not_yet_approved' ) ;
#125 = ADVANCED_FACE ( 'NONE', ( #277, #233 ), #129, .F. ) ;
#126 = AXIS2_PLACEMENT_3D ( 'NONE', #50, #100, #72 ) ;
#127 = ORIENTED_EDGE ( 'NONE', *, *, #98, .T. ) ;
#128 = ORIENTED_EDGE ( 'NONE', *, *, #98, .F. ) ;
#129 = TOROIDAL_SURFACE ( 'NONE', #209, 2.400000000000000355, 2.000000000000000000 ) ;
#130 = CIRCLE ( 'NONE', #191, 0.4434999999999993947 ) ;
#131 = EDGE_LOOP ( 'NONE', ( #251 ) ) ;
#132 = EDGE_LOOP ( 'NONE', ( #61 ) ) ;
#133 = DIRECTION ( 'NONE',  ( -3.491481338843133355E-15, 1.224646799147352961E-16, -1.000000000000000000 ) ) ;
#134 = CONICAL_SURFACE ( 'NONE', #179, 0.4434999999999993947, 0.5235987755982918213 ) ;
#135 = FACE_OUTER_BOUND ( 'NONE', #249, .T. ) ;
#136 = CARTESIAN_POINT ( 'NONE',  ( 1.745740669421566678E-14, 3.325717318052658763E-33, 5.000000000000000000 ) ) ;
#137 = CARTESIAN_POINT ( 'NONE',  ( 1.316288464743861212E-13, -4.616918432785520292E-15, 37.69999999999999574 ) ) ;
#138 = VERTEX_POINT ( 'NONE', #160 ) ;
#139 = PLANE ( 'NONE',  #80 ) ;
#140 = APPLICATION_PROTOCOL_DEFINITION ( 'international standard', 'config_control_design', 1994, #182 ) ;
#141 = APPROVAL ( #193, 'UNSPECIFIED' ) ;
#142 = DIRECTION ( 'NONE',  ( 0.0000000000000000000, 1.000000000000000000, 0.0000000000000000000 ) ) ;
#143 = COORDINATED_UNIVERSAL_TIME_OFFSET ( 1, 0, .AHEAD. ) ;
#144 = PRODUCT_DEFINITION_FORMATION_WITH_SPECIFIED_SOURCE ( 'ANY', '', #43, .NOT_KNOWN. ) ;
#145 = CARTESIAN_POINT ( 'NONE',  ( 1.772046959787181091E-14, 0.3999999999999989120, 5.075344210129247635 ) ) ;
#146 = FACE_OUTER_BOUND ( 'NONE', #59, .T. ) ;
#147 = EDGE_LOOP ( 'NONE', ( #86 ) ) ;
#148 = UNCERTAINTY_MEASURE_WITH_UNIT (LENGTH_MEASURE( 1.000000000000000082E-05 ), #247, 'distance_accuracy_value', 'NONE');
#149 = ADVANCED_FACE ( 'NONE', ( #155, #135 ), #231, .T. ) ;
#150 = EDGE_LOOP ( 'NONE', ( #83 ) ) ;
#151 = EDGE_LOOP ( 'NONE', ( #175 ) ) ;
#152 = ORIENTED_EDGE ( 'NONE', *, *, #270, .F. ) ;
#153 = CC_DESIGN_PERSON_AND_ORGANIZATION_ASSIGNMENT ( #56, #197, ( #144 ) ) ;
#154 = FACE_BOUND ( 'NONE', #229, .T. ) ;
#155 = FACE_OUTER_BOUND ( 'NONE', #89, .T. ) ;
#156 = CC_DESIGN_APPROVAL ( #141, ( #163 ) ) ;
#157 = CC_DESIGN_DATE_AND_TIME_ASSIGNMENT ( #22, #269, ( #163 ) ) ;
#158 = FACE_OUTER_BOUND ( 'NONE', #16, .T. ) ;
#159 = CARTESIAN_POINT ( 'NONE',  ( 1.772046959787181091E-14, -6.215504041505834086E-16, 5.075344210129247635 ) ) ;
#160 = CARTESIAN_POINT ( 'NONE',  ( 1.745740669421566678E-14, 0.4434999999999993947, 5.000000000000000000 ) ) ;
#161 = LOCAL_TIME ( 15, 49, 18.00000000000000000, #248 ) ;
#162 = DIRECTION ( 'NONE',  ( -3.491481338843133355E-15, 1.224646799147352961E-16, -1.000000000000000000 ) ) ;
#163 = PRODUCT_DEFINITION ( 'UNKNOWN', '', #144, #85 ) ;
#164 = PLANE ( 'NONE',  #126 ) ;
#165 = APPROVAL_ROLE ( '' ) ;
#166 = PRODUCT_DEFINITION_SHAPE ( 'NONE', 'NONE',  #163 ) ;
#167 = VERTEX_POINT ( 'NONE', #7 ) ;
#168 = CIRCLE ( 'NONE', #288, 0.4303844939755809840 ) ;
#169 = SECURITY_CLASSIFICATION ( '', '', #239 ) ;
#170 = CC_DESIGN_APPROVAL ( #70, ( #169 ) ) ;
#171 = DIRECTION ( 'NONE',  ( 3.491481338843133355E-15, -1.224646799147352961E-16, 1.000000000000000000 ) ) ;
#172 = PERSON_AND_ORGANIZATION ( #228, #293 ) ;
#173 = ADVANCED_FACE ( 'NONE', ( #158 ), #259, .T. ) ;
#174 = AXIS2_PLACEMENT_3D ( 'NONE', #302, #281, #142 ) ;
#175 = ORIENTED_EDGE ( 'NONE', *, *, #290, .T. ) ;
#176 = CC_DESIGN_DATE_AND_TIME_ASSIGNMENT ( #99, #75, ( #169 ) ) ;
#177 = AXIS2_PLACEMENT_3D ( 'NONE', #159, #301, #93 ) ;
#178 = DIRECTION ( 'NONE',  ( -3.491481338843133355E-15, 1.224646799147352961E-16, -1.000000000000000000 ) ) ;
#179 = AXIS2_PLACEMENT_3D ( 'NONE', #69, #263, #123 ) ;
#180 = ORIENTED_EDGE ( 'NONE', *, *, #65, .F. ) ;
#181 = CARTESIAN_POINT ( 'NONE',  ( 3.142333204958820020E-14, -1.102182119232617517E-15, 9.000000000000000000 ) ) ;
#182 = APPLICATION_CONTEXT ( 'configuration controlled 3d designs of mechanical parts and assemblies' ) ;
#183 = CYLINDRICAL_SURFACE ( 'NONE', #292, 0.3999999999999997446 ) ;
#184 = CIRCLE ( 'NONE', #108, 1.500000000000003331 ) ;
#185 = APPROVAL_PERSON_ORGANIZATION ( #286, #49, #165 ) ;
#186 = EDGE_LOOP ( 'NONE', ( #272 ) ) ;
#187 = DIRECTION ( 'NONE',  ( -3.491481338843133355E-15, 1.224646799147352961E-16, -1.000000000000000000 ) ) ;
#188 = VERTEX_POINT ( 'NONE', #196 ) ;
#189 = EDGE_CURVE ( 'NONE', #188, #188, #168, .T. ) ;
#190 = PERSON_AND_ORGANIZATION_ROLE ( 'creator' ) ;
#191 = AXIS2_PLACEMENT_3D ( 'NONE', #77, #25, #97 ) ;
#192 = VERTEX_POINT ( 'NONE', #283 ) ;
#193 = APPROVAL_STATUS ( 'not_yet_approved' ) ;
#194 = CARTESIAN_POINT ( 'NONE',  ( 1.326762908760390423E-13, -4.653657836759941152E-15, 38.00000000000000000 ) ) ;
#195 = DIRECTION ( 'NONE',  ( 1.000000000000000000, 0.0000000000000000000, 0.0000000000000000000 ) ) ;
#196 = CARTESIAN_POINT ( 'NONE',  ( 3.263591079328455776E-14, 0.4303844939755798737, 9.347296355333845952 ) ) ;
#197 = PERSON_AND_ORGANIZATION_ROLE ( 'design_supplier' ) ;
#198 = AXIS2_PLACEMENT_3D ( 'NONE', #52, #117, #95 ) ;
#199 = EDGE_LOOP ( 'NONE', ( #111 ) ) ;
#200 = EDGE_LOOP ( 'NONE', ( #152 ) ) ;
#201 = ADVANCED_FACE ( 'NONE', ( #244 ), #139, .F. ) ;
#202 = LOCAL_TIME ( 15, 49, 18.00000000000000000, #11 ) ;
#203 = FACE_OUTER_BOUND ( 'NONE', #87, .T. ) ;
#204 = FACE_OUTER_BOUND ( 'NONE', #150, .T. ) ;
#205 = FACE_BOUND ( 'NONE', #131, .T. ) ;
#206 = EDGE_CURVE ( 'NONE', #266, #266, #112, .T. ) ;
#207 = ORIENTED_EDGE ( 'NONE', *, *, #298, .T. ) ;
#208 = DIRECTION ( 'NONE',  ( -3.491481338843133355E-15, 1.224646799147352961E-16, -1.000000000000000000 ) ) ;
#209 = AXIS2_PLACEMENT_3D ( 'NONE', #258, #278, #41 ) ;
#210 = DIRECTION ( 'NONE',  ( 0.0000000000000000000, 1.000000000000000000, 0.0000000000000000000 ) ) ;
#211 = CC_DESIGN_PERSON_AND_ORGANIZATION_ASSIGNMENT ( #172, #190, ( #163 ) ) ;
#212 = FACE_OUTER_BOUND ( 'NONE', #227, .T. ) ;
#213 = DIRECTION ( 'NONE',  ( -3.491481338843133355E-15, 1.224646799147352961E-16, -1.000000000000000000 ) ) ;
#214 = APPLICATION_PROTOCOL_DEFINITION ( 'international standard', 'config_control_design', 1994, #246 ) ;
#215 = AXIS2_PLACEMENT_3D ( 'NONE', #60, #289, #195 ) ;
#216 = VERTEX_POINT ( 'NONE', #145 ) ;
#217 = PRODUCT_RELATED_PRODUCT_CATEGORY ( 'detail', '', ( #43 ) ) ;
#218 = PERSON_AND_ORGANIZATION_ROLE ( 'design_owner' ) ;
#219 = DIRECTION ( 'NONE',  ( 0.0000000000000000000, 1.000000000000000000, 0.0000000000000000000 ) ) ;
#220 = APPROVAL_ROLE ( '' ) ;
#221 = AXIS2_PLACEMENT_3D ( 'NONE', #55, #162, #2 ) ;
#222 =( GEOMETRIC_REPRESENTATION_CONTEXT ( 3 ) GLOBAL_UNCERTAINTY_ASSIGNED_CONTEXT ( ( #148 ) ) GLOBAL_UNIT_ASSIGNED_CONTEXT ( ( #247, #282, #237 ) ) REPRESENTATION_CONTEXT ( 'NONE', 'WORKASPACE' ) );
#223 = ADVANCED_FACE ( 'NONE', ( #146 ), #164, .F. ) ;
#224 = ORIENTED_EDGE ( 'NONE', *, *, #65, .T. ) ;
#225 = CLOSED_SHELL ( 'NONE', ( #223, #54, #40, #125, #240, #149, #107, #76 ) ) ;
#226 = LOCAL_TIME ( 15, 49, 18.00000000000000000, #73 ) ;
#227 = EDGE_LOOP ( 'NONE', ( #13 ) ) ;
#228 = PERSON ( 'UNSPECIFIED', 'UNSPECIFIED', 'UNSPECIFIED', ('UNSPECIFIED'), ('UNSPECIFIED'), ('UNSPECIFIED') ) ;
#229 = EDGE_LOOP ( 'NONE', ( #224 ) ) ;
#230 = DIRECTION ( 'NONE',  ( 0.0000000000000000000, 1.000000000000000000, 0.0000000000000000000 ) ) ;
#231 = CYLINDRICAL_SURFACE ( 'NONE', #46, 1.500000000000000444 ) ;
#232 = DIRECTION ( 'NONE',  ( 3.491481338843133355E-15, -1.224646799147352961E-16, 1.000000000000000000 ) ) ;
#233 = FACE_OUTER_BOUND ( 'NONE', #186, .T. ) ;
#234 = AXIS2_PLACEMENT_3D ( 'NONE', #44, #275, #88 ) ;
#235 = CC_DESIGN_PERSON_AND_ORGANIZATION_ASSIGNMENT ( #84, #218, ( #43 ) ) ;
#236 = FACE_OUTER_BOUND ( 'NONE', #297, .T. ) ;
#237 =( NAMED_UNIT ( * ) SI_UNIT ( $, .STERADIAN. ) SOLID_ANGLE_UNIT ( ) );
#238 = VERTEX_POINT ( 'NONE', #23 ) ;
#239 = SECURITY_CLASSIFICATION_LEVEL ( 'unclassified' ) ;
#240 = ADVANCED_FACE ( 'NONE', ( #122, #236 ), #121, .T. ) ;
#241 = CYLINDRICAL_SURFACE ( 'NONE', #71, 0.4434999999999996723 ) ;
#242 = AXIS2_PLACEMENT_3D ( 'NONE', #136, #232, #101 ) ;
#243 = APPROVAL_DATE_TIME ( #106, #70 ) ;
#244 = FACE_OUTER_BOUND ( 'NONE', #291, .T. ) ;
#245 = MECHANICAL_CONTEXT ( 'NONE', #182, 'mechanical' ) ;
#246 = APPLICATION_CONTEXT ( 'configuration controlled 3d designs of mechanical parts and assemblies' ) ;
#247 =( LENGTH_UNIT ( ) NAMED_UNIT ( * ) SI_UNIT ( .MILLI., .METRE. ) );
#248 = COORDINATED_UNIVERSAL_TIME_OFFSET ( 1, 0, .AHEAD. ) ;
#249 = EDGE_LOOP ( 'NONE', ( #127 ) ) ;
#250 = CONICAL_SURFACE ( 'NONE', #10, 1.200000000000003286, 0.7853981633974453924 ) ;
#251 = ORIENTED_EDGE ( 'NONE', *, *, #257, .T. ) ;
#252 = EDGE_LOOP ( 'NONE', ( #110 ) ) ;
#253 = CC_DESIGN_PERSON_AND_ORGANIZATION_ASSIGNMENT ( #51, #102, ( #144 ) ) ;
#254 = EDGE_LOOP ( 'NONE', ( #128 ) ) ;
#255 = DIRECTION ( 'NONE',  ( 0.0000000000000000000, 1.000000000000000000, 0.0000000000000000000 ) ) ;
#256 = DIRECTION ( 'NONE',  ( -3.491481338843133355E-15, 1.224646799147352961E-16, -1.000000000000000000 ) ) ;
#257 = EDGE_CURVE ( 'NONE', #238, #238, #62, .T. ) ;
#258 = CARTESIAN_POINT ( 'NONE',  ( 3.142333204958820020E-14, -1.301042606982605321E-15, 9.000000000000000000 ) ) ;
#259 = PLANE ( 'NONE',  #242 ) ;
#260 = PLANE ( 'NONE',  #234 ) ;
#261 = CARTESIAN_POINT ( 'NONE',  ( 1.316288464743861212E-13, 1.499999999999998668, 37.69999999999999574 ) ) ;
#262 = CIRCLE ( 'NONE', #19, 0.3999999999999995226 ) ;
#263 = DIRECTION ( 'NONE',  ( 3.491481338843133355E-15, -1.224646799147352961E-16, 1.000000000000000000 ) ) ;
#264 = CALENDAR_DATE ( 2021, 29, 11 ) ;
#265 = VERTEX_POINT ( 'NONE', #261 ) ;
#266 = VERTEX_POINT ( 'NONE', #287 ) ;
#267 = CALENDAR_DATE ( 2021, 29, 11 ) ;
#268 = DIRECTION ( 'NONE',  ( -4.275831445896957731E-31, -1.000000000000000000, -1.224646799147352961E-16 ) ) ;
#269 = DATE_TIME_ROLE ( 'creation_date' ) ;
#270 = EDGE_CURVE ( 'NONE', #192, #192, #105, .T. ) ;
#271 = CALENDAR_DATE ( 2021, 29, 11 ) ;
#272 = ORIENTED_EDGE ( 'NONE', *, *, #189, .T. ) ;
#273 = ADVANCED_FACE ( 'NONE', ( #29, #212 ), #241, .T. ) ;
#274 = DIRECTION ( 'NONE',  ( -3.491481338843133355E-15, 1.224646799147352961E-16, -1.000000000000000000 ) ) ;
#275 = DIRECTION ( 'NONE',  ( -3.491481338843133355E-15, 1.224646799147352961E-16, -1.000000000000000000 ) ) ;
#276 = ADVANCED_FACE ( 'NONE', ( #303, #285 ), #134, .T. ) ;
#277 = FACE_OUTER_BOUND ( 'NONE', #199, .T. ) ;
#278 = DIRECTION ( 'NONE',  ( -3.491481338843133355E-15, 1.224646799147352961E-16, -1.000000000000000000 ) ) ;
#279 = DIRECTION ( 'NONE',  ( 0.0000000000000000000, 1.000000000000000000, 0.0000000000000000000 ) ) ;
#280 = CARTESIAN_POINT ( 'NONE',  ( 5.381555422627829803E-14, -1.887595545602700538E-15, 15.41338732863155769 ) ) ;
#281 = DIRECTION ( 'NONE',  ( -3.491481338843133355E-15, 1.224646799147352961E-16, -1.000000000000000000 ) ) ;
#282 =( NAMED_UNIT ( * ) PLANE_ANGLE_UNIT ( ) SI_UNIT ( $, .RADIAN. ) );
#283 = CARTESIAN_POINT ( 'NONE',  ( 2.138211768073756517E-47, 0.3857649730810377431, 0.0000000000000000000 ) ) ;
#284 = CALENDAR_DATE ( 2021, 29, 11 ) ;
#285 = FACE_OUTER_BOUND ( 'NONE', #151, .T. ) ;
#286 = PERSON_AND_ORGANIZATION ( #228, #293 ) ;
#287 = CARTESIAN_POINT ( 'NONE',  ( 1.745740669421566678E-14, 0.4434999999999993947, 5.000000000000000000 ) ) ;
#288 = AXIS2_PLACEMENT_3D ( 'NONE', #119, #213, #210 ) ;
#289 = DIRECTION ( 'NONE',  ( 0.0000000000000000000, 0.0000000000000000000, 1.000000000000000000 ) ) ;
#290 = EDGE_CURVE ( 'NONE', #74, #74, #130, .T. ) ;
#291 = EDGE_LOOP ( 'NONE', ( #294 ) ) ;
#292 = AXIS2_PLACEMENT_3D ( 'NONE', #18, #208, #42 ) ;
#293 = ORGANIZATION ( 'UNSPECIFIED', 'UNSPECIFIED', '' ) ;
#294 = ORIENTED_EDGE ( 'NONE', *, *, #270, .T. ) ;
#295 = FACE_OUTER_BOUND ( 'NONE', #32, .T. ) ;
#296 = CARTESIAN_POINT ( 'NONE',  ( 1.326762908760390423E-13, -4.653657836759941152E-15, 38.00000000000000000 ) ) ;
#297 = EDGE_LOOP ( 'NONE', ( #207 ) ) ;
#298 = EDGE_CURVE ( 'NONE', #79, #79, #47, .T. ) ;
#299 = CIRCLE ( 'NONE', #92, 0.4435000000000000053 ) ;
#300 = CC_DESIGN_APPROVAL ( #49, ( #144 ) ) ;
#301 = DIRECTION ( 'NONE',  ( -3.491481338843133355E-15, 1.224646799147352961E-16, -1.000000000000000000 ) ) ;
#302 = CARTESIAN_POINT ( 'NONE',  ( 1.745740669421566678E-14, -6.123233995736765296E-16, 5.000000000000000000 ) ) ;
#303 = FACE_BOUND ( 'NONE', #200, .T. ) ;
ENDSEC;
END-ISO-10303-21;
