ISO-10303-21;
HEADER;
FILE_DESCRIPTION (( 'STEP AP203' ),
    '1' );
FILE_NAME ('200025.step',
    '2021-11-29T14:49:18',
    ( '' ),
    ( '' ),
    'SwSTEP 2.0',
    'SolidWorks 2019',
    '' );
FILE_SCHEMA (( 'CONFIG_CONTROL_DESIGN' ));
ENDSEC;

DATA;
#1 = EDGE_LOOP ( 'NONE', ( #176 ) ) ;
#2 = PERSON_AND_ORGANIZATION_ROLE ( 'design_owner' ) ;
#3 = AXIS2_PLACEMENT_3D ( 'NONE', #227, #52, #155 ) ;
#4 = EDGE_CURVE ( 'NONE', #297, #297, #174, .T. ) ;
#5 = PERSON_AND_ORGANIZATION ( #214, #102 ) ;
#6 = ADVANCED_FACE ( 'NONE', ( #12, #224 ), #31, .T. ) ;
#7 = DATE_AND_TIME ( #45, #246 ) ;
#8 = AXIS2_PLACEMENT_3D ( 'NONE', #63, #86, #163 ) ;
#9 = EDGE_LOOP ( 'NONE', ( #237 ) ) ;
#10 = PRODUCT_DEFINITION ( 'UNKNOWN', '', #159, #80 ) ;
#11 = CARTESIAN_POINT ( 'NONE',  ( 1.326762908760390423E-13, -4.653657836759941152E-15, 38.00000000000000000 ) ) ;
#12 = FACE_OUTER_BOUND ( 'NONE', #53, .T. ) ;
#13 = DIRECTION ( 'NONE',  ( -3.491481338843133355E-15, 1.224646799147352961E-16, -1.000000000000000000 ) ) ;
#14 = CARTESIAN_POINT ( 'NONE',  ( 1.326762908760390423E-13, -4.653657836759941152E-15, 38.00000000000000000 ) ) ;
#15 = DIRECTION ( 'NONE',  ( 0.0000000000000000000, 1.000000000000000000, 0.0000000000000000000 ) ) ;
#16 = AXIS2_PLACEMENT_3D ( 'NONE', #248, #13, #110 ) ;
#17 = DIRECTION ( 'NONE',  ( 0.0000000000000000000, 1.000000000000000000, 0.0000000000000000000 ) ) ;
#18 = FACE_OUTER_BOUND ( 'NONE', #243, .T. ) ;
#19 = CARTESIAN_POINT ( 'NONE',  ( -7.605955296242925246E-32, 2.667809993533591497E-33, -2.178432177662184176E-17 ) ) ;
#20 = CLOSED_SHELL ( 'NONE', ( #218, #135, #6, #97, #123, #162, #46, #115 ) ) ;
#21 = CALENDAR_DATE ( 2021, 29, 11 ) ;
#22 = EDGE_LOOP ( 'NONE', ( #82 ) ) ;
#23 = DIRECTION ( 'NONE',  ( 1.000000000000000000, 0.0000000000000000000, 0.0000000000000000000 ) ) ;
#24 = CIRCLE ( 'NONE', #294, 0.3750000000000001110 ) ;
#25 = COORDINATED_UNIVERSAL_TIME_OFFSET ( 1, 0, .AHEAD. ) ;
#26 = AXIS2_PLACEMENT_3D ( 'NONE', #74, #67, #23 ) ;
#27 = ORIENTED_EDGE ( 'NONE', *, *, #90, .T. ) ;
#28 = CLOSED_SHELL ( 'NONE', ( #271, #192, #54, #296 ) ) ;
#29 = DIRECTION ( 'NONE',  ( -3.491481338843133355E-15, 1.224646799147352961E-16, -1.000000000000000000 ) ) ;
#30 = DIRECTION ( 'NONE',  ( -3.491481338843133355E-15, 1.224646799147352961E-16, -1.000000000000000000 ) ) ;
#31 = CYLINDRICAL_SURFACE ( 'NONE', #127, 0.3749999999999997780 ) ;
#32 = CARTESIAN_POINT ( 'NONE',  ( 1.769023248250903903E-14, -6.204898289118584630E-16, 5.066683956091403651 ) ) ;
#33 = AXIS2_PLACEMENT_3D ( 'NONE', #211, #187, #113 ) ;
#34 = DIRECTION ( 'NONE',  ( -3.491481338843133355E-15, 1.224646799147352961E-16, -1.000000000000000000 ) ) ;
#35 = APPROVAL ( #281, 'UNSPECIFIED' ) ;
#36 = CARTESIAN_POINT ( 'NONE',  ( 1.769023248250903903E-14, 0.3749999999999989453, 5.066683956091403651 ) ) ;
#37 = FACE_BOUND ( 'NONE', #51, .T. ) ;
#38 = SECURITY_CLASSIFICATION ( '', '', #173 ) ;
#39 = EDGE_CURVE ( 'NONE', #116, #116, #197, .T. ) ;
#40 = DIRECTION ( 'NONE',  ( -4.275831445896957731E-31, -1.000000000000000000, -1.224646799147352961E-16 ) ) ;
#41 = FACE_OUTER_BOUND ( 'NONE', #22, .T. ) ;
#42 = VERTEX_POINT ( 'NONE', #147 ) ;
#43 = CIRCLE ( 'NONE', #87, 0.3749999999999995004 ) ;
#44 = AXIS2_PLACEMENT_3D ( 'NONE', #279, #298, #15 ) ;
#45 = CALENDAR_DATE ( 2021, 29, 11 ) ;
#46 = ADVANCED_FACE ( 'NONE', ( #204, #272 ), #234, .T. ) ;
#47 =( NAMED_UNIT ( * ) PLANE_ANGLE_UNIT ( ) SI_UNIT ( $, .RADIAN. ) );
#48 = ORIENTED_EDGE ( 'NONE', *, *, #245, .F. ) ;
#49 = EDGE_CURVE ( 'NONE', #164, #164, #283, .T. ) ;
#50 = APPROVAL_DATE_TIME ( #175, #140 ) ;
#51 = EDGE_LOOP ( 'NONE', ( #240 ) ) ;
#52 = DIRECTION ( 'NONE',  ( -3.491481338843133355E-15, 1.224646799147352961E-16, -1.000000000000000000 ) ) ;
#53 = EDGE_LOOP ( 'NONE', ( #287 ) ) ;
#54 = ADVANCED_FACE ( 'NONE', ( #160, #136 ), #105, .T. ) ;
#55 = ORIENTED_EDGE ( 'NONE', *, *, #4, .T. ) ;
#56 = DIRECTION ( 'NONE',  ( -3.491481338843133355E-15, 1.224646799147352961E-16, -1.000000000000000000 ) ) ;
#57 = EDGE_CURVE ( 'NONE', #210, #210, #24, .T. ) ;
#58 = EDGE_LOOP ( 'NONE', ( #215 ) ) ;
#59 = AXIS2_PLACEMENT_3D ( 'NONE', #19, #167, #40 ) ;
#60 = VERTEX_POINT ( 'NONE', #252 ) ;
#61 = DIRECTION ( 'NONE',  ( -4.657629853415329736E-31, -1.000000000000000000, -1.311006254516936056E-16 ) ) ;
#62 = CC_DESIGN_PERSON_AND_ORGANIZATION_ASSIGNMENT ( #194, #2, ( #196 ) ) ;
#63 = CARTESIAN_POINT ( 'NONE',  ( 1.745740669421566678E-14, 3.100753350653379848E-33, 5.000000000000000000 ) ) ;
#64 = APPROVAL_PERSON_ORGANIZATION ( #238, #140, #70 ) ;
#65 = CARTESIAN_POINT ( 'NONE',  ( 0.0000000000000000000, 0.0000000000000000000, 0.0000000000000000000 ) ) ;
#66 = FACE_BOUND ( 'NONE', #77, .T. ) ;
#67 = DIRECTION ( 'NONE',  ( 0.0000000000000000000, 0.0000000000000000000, 1.000000000000000000 ) ) ;
#68 = EDGE_LOOP ( 'NONE', ( #156 ) ) ;
#69 = LOCAL_TIME ( 15, 49, 18.00000000000000000, #170 ) ;
#70 = APPROVAL_ROLE ( '' ) ;
#71 = EDGE_CURVE ( 'NONE', #168, #168, #148, .T. ) ;
#72 = DATE_AND_TIME ( #21, #241 ) ;
#73 = ORIENTED_EDGE ( 'NONE', *, *, #39, .F. ) ;
#74 = CARTESIAN_POINT ( 'NONE',  ( 0.0000000000000000000, 0.0000000000000000000, 0.0000000000000000000 ) ) ;
#75 = APPROVAL_PERSON_ORGANIZATION ( #242, #188, #130 ) ;
#76 = EDGE_LOOP ( 'NONE', ( #131 ) ) ;
#77 = EDGE_LOOP ( 'NONE', ( #27 ) ) ;
#78 = CARTESIAN_POINT ( 'NONE',  ( 1.745740669421566678E-14, -6.123233995736765296E-16, 5.000000000000000000 ) ) ;
#79 = CC_DESIGN_DATE_AND_TIME_ASSIGNMENT ( #72, #129, ( #10 ) ) ;
#80 = DESIGN_CONTEXT ( 'detailed design', #251, 'design' ) ;
#81 = TOROIDAL_SURFACE ( 'NONE', #229, 2.375000000000000444, 2.000000000000000444 ) ;
#82 = ORIENTED_EDGE ( 'NONE', *, *, #119, .F. ) ;
#83 = ORIENTED_EDGE ( 'NONE', *, *, #245, .T. ) ;
#84 = APPLICATION_CONTEXT ( 'configuration controlled 3d designs of mechanical parts and assemblies' ) ;
#85 = DIRECTION ( 'NONE',  ( 4.275831445896957731E-31, 1.000000000000000000, 1.224646799147352961E-16 ) ) ;
#86 = DIRECTION ( 'NONE',  ( 3.491481338843133355E-15, -1.224646799147352961E-16, 1.000000000000000000 ) ) ;
#87 = AXIS2_PLACEMENT_3D ( 'NONE', #32, #29, #291 ) ;
#88 = CARTESIAN_POINT ( 'NONE',  ( 3.142333204958820020E-14, 0.3749999999999990563, 9.000000000000000000 ) ) ;
#89 = FACE_OUTER_BOUND ( 'NONE', #180, .T. ) ;
#90 = EDGE_CURVE ( 'NONE', #259, #259, #43, .T. ) ;
#91 = CARTESIAN_POINT ( 'NONE',  ( 5.431058359229120707E-14, -1.904958838421344876E-15, 15.55516937412200740 ) ) ;
#92 = CARTESIAN_POINT ( 'NONE',  ( 3.491481338843132369E-16, -1.224646799147352498E-17, 0.09999999999999996392 ) ) ;
#93 = DATE_TIME_ROLE ( 'classification_date' ) ;
#94 = PERSON_AND_ORGANIZATION ( #214, #102 ) ;
#95 = AXIS2_PLACEMENT_3D ( 'NONE', #178, #134, #106 ) ;
#96 = PERSON_AND_ORGANIZATION_ROLE ( 'design_supplier' ) ;
#97 = ADVANCED_FACE ( 'NONE', ( #137, #226 ), #81, .F. ) ;
#98 = PERSON_AND_ORGANIZATION ( #214, #102 ) ;
#99 = PERSON_AND_ORGANIZATION ( #214, #102 ) ;
#100 = AXIS2_PLACEMENT_3D ( 'NONE', #14, #112, #273 ) ;
#101 = SHAPE_DEFINITION_REPRESENTATION ( #153, #103 ) ;
#102 = ORGANIZATION ( 'UNSPECIFIED', 'UNSPECIFIED', '' ) ;
#103 = ADVANCED_BREP_SHAPE_REPRESENTATION ( '200025', ( #301, #107, #26 ), #198 ) ;
#104 = EDGE_CURVE ( 'NONE', #42, #42, #142, .T. ) ;
#105 = CYLINDRICAL_SURFACE ( 'NONE', #183, 0.4134999999999997011 ) ;
#106 = DIRECTION ( 'NONE',  ( 4.657629853415329736E-31, 1.000000000000000000, 1.311006254516936056E-16 ) ) ;
#107 = MANIFOLD_SOLID_BREP ( 'Corps-Déplacer/Copier1[2]', #28 ) ;
#108 = AXIS2_PLACEMENT_3D ( 'NONE', #233, #114, #280 ) ;
#109 = CC_DESIGN_APPROVAL ( #188, ( #159 ) ) ;
#110 = DIRECTION ( 'NONE',  ( 0.0000000000000000000, 1.000000000000000000, 0.0000000000000000000 ) ) ;
#111 = CC_DESIGN_PERSON_AND_ORGANIZATION_ASSIGNMENT ( #5, #285, ( #159 ) ) ;
#112 = DIRECTION ( 'NONE',  ( -3.491481338843133355E-15, 1.224646799147352961E-16, -1.000000000000000000 ) ) ;
#113 = DIRECTION ( 'NONE',  ( 0.0000000000000000000, 1.000000000000000000, 0.0000000000000000000 ) ) ;
#114 = DIRECTION ( 'NONE',  ( 3.491481338843133355E-15, -1.224646799147352961E-16, 1.000000000000000000 ) ) ;
#115 = ADVANCED_FACE ( 'NONE', ( #199 ), #182, .F. ) ;
#116 = VERTEX_POINT ( 'NONE', #190 ) ;
#117 = DIRECTION ( 'NONE',  ( -4.275831445896957731E-31, -1.000000000000000000, -1.224646799147352961E-16 ) ) ;
#118 = CARTESIAN_POINT ( 'NONE',  ( 1.745740669421566678E-14, 0.4134999999999993681, 5.000000000000000000 ) ) ;
#119 = EDGE_CURVE ( 'NONE', #206, #206, #255, .T. ) ;
#120 = CC_DESIGN_SECURITY_CLASSIFICATION ( #38, ( #159 ) ) ;
#121 = COORDINATED_UNIVERSAL_TIME_OFFSET ( 1, 0, .AHEAD. ) ;
#122 = ORIENTED_EDGE ( 'NONE', *, *, #71, .T. ) ;
#123 = ADVANCED_FACE ( 'NONE', ( #37, #228 ), #239, .T. ) ;
#124 = APPROVAL_STATUS ( 'not_yet_approved' ) ;
#125 = ORIENTED_EDGE ( 'NONE', *, *, #179, .F. ) ;
#126 = AXIS2_PLACEMENT_3D ( 'NONE', #91, #293, #17 ) ;
#127 = AXIS2_PLACEMENT_3D ( 'NONE', #225, #201, #250 ) ;
#128 = AXIS2_PLACEMENT_3D ( 'NONE', #253, #300, #117 ) ;
#129 = DATE_TIME_ROLE ( 'creation_date' ) ;
#130 = APPROVAL_ROLE ( '' ) ;
#131 = ORIENTED_EDGE ( 'NONE', *, *, #4, .F. ) ;
#132 = EDGE_LOOP ( 'NONE', ( #222 ) ) ;
#133 = UNCERTAINTY_MEASURE_WITH_UNIT (LENGTH_MEASURE( 1.000000000000000082E-05 ), #152, 'distance_accuracy_value', 'NONE');
#134 = DIRECTION ( 'NONE',  ( -3.491481338843133355E-15, 1.224646799147352961E-16, -1.000000000000000000 ) ) ;
#135 = ADVANCED_FACE ( 'NONE', ( #189, #66 ), #290, .T. ) ;
#136 = FACE_OUTER_BOUND ( 'NONE', #268, .T. ) ;
#137 = FACE_OUTER_BOUND ( 'NONE', #1, .T. ) ;
#138 = DIRECTION ( 'NONE',  ( 0.0000000000000000000, 1.000000000000000000, 0.0000000000000000000 ) ) ;
#139 = VERTEX_POINT ( 'NONE', #217 ) ;
#140 = APPROVAL ( #236, 'UNSPECIFIED' ) ;
#141 = FACE_BOUND ( 'NONE', #282, .T. ) ;
#142 = CIRCLE ( 'NONE', #269, 0.4053844939755807397 ) ;
#143 = CIRCLE ( 'NONE', #184, 0.3557649730810375499 ) ;
#144 = DIRECTION ( 'NONE',  ( -3.491481338843133355E-15, 1.224646799147352961E-16, -1.000000000000000000 ) ) ;
#145 = DIRECTION ( 'NONE',  ( 3.491481338843133355E-15, -1.224646799147352961E-16, 1.000000000000000000 ) ) ;
#146 = CC_DESIGN_PERSON_AND_ORGANIZATION_ASSIGNMENT ( #99, #154, ( #38 ) ) ;
#147 = CARTESIAN_POINT ( 'NONE',  ( 3.263591079328455776E-14, 0.4053844939755795740, 9.347296355333845952 ) ) ;
#148 = CIRCLE ( 'NONE', #16, 1.500000000000003331 ) ;
#149 = APPLICATION_PROTOCOL_DEFINITION ( 'international standard', 'config_control_design', 1994, #251 ) ;
#150 = ORIENTED_EDGE ( 'NONE', *, *, #49, .T. ) ;
#151 =( NAMED_UNIT ( * ) SI_UNIT ( $, .STERADIAN. ) SOLID_ANGLE_UNIT ( ) );
#152 =( LENGTH_UNIT ( ) NAMED_UNIT ( * ) SI_UNIT ( .MILLI., .METRE. ) );
#153 = PRODUCT_DEFINITION_SHAPE ( 'NONE', 'NONE',  #10 ) ;
#154 = PERSON_AND_ORGANIZATION_ROLE ( 'classification_officer' ) ;
#155 = DIRECTION ( 'NONE',  ( 4.275831445896957731E-31, 1.000000000000000000, 1.224646799147352961E-16 ) ) ;
#156 = ORIENTED_EDGE ( 'NONE', *, *, #119, .T. ) ;
#157 = DIRECTION ( 'NONE',  ( -3.491481338843133355E-15, 1.224646799147352961E-16, -1.000000000000000000 ) ) ;
#158 = DIRECTION ( 'NONE',  ( 4.275831445896957731E-31, 1.000000000000000000, 1.224646799147352961E-16 ) ) ;
#159 = PRODUCT_DEFINITION_FORMATION_WITH_SPECIFIED_SOURCE ( 'ANY', '', #196, .NOT_KNOWN. ) ;
#160 = FACE_OUTER_BOUND ( 'NONE', #9, .T. ) ;
#161 = DIRECTION ( 'NONE',  ( 4.275831445896957731E-31, 1.000000000000000000, 1.224646799147353207E-16 ) ) ;
#162 = ADVANCED_FACE ( 'NONE', ( #41, #89 ), #231, .T. ) ;
#163 = DIRECTION ( 'NONE',  ( -4.275831445896957731E-31, -1.000000000000000000, -1.224646799147352961E-16 ) ) ;
#164 = VERTEX_POINT ( 'NONE', #185 ) ;
#165 = CC_DESIGN_APPROVAL ( #35, ( #38 ) ) ;
#166 = CC_DESIGN_DATE_AND_TIME_ASSIGNMENT ( #169, #93, ( #38 ) ) ;
#167 = DIRECTION ( 'NONE',  ( 3.491481338843133355E-15, -1.224646799147352961E-16, 1.000000000000000000 ) ) ;
#168 = VERTEX_POINT ( 'NONE', #299 ) ;
#169 = DATE_AND_TIME ( #302, #69 ) ;
#170 = COORDINATED_UNIVERSAL_TIME_OFFSET ( 1, 0, .AHEAD. ) ;
#171 = MECHANICAL_CONTEXT ( 'NONE', #84, 'mechanical' ) ;
#172 = EDGE_LOOP ( 'NONE', ( #150 ) ) ;
#173 = SECURITY_CLASSIFICATION_LEVEL ( 'unclassified' ) ;
#174 = CIRCLE ( 'NONE', #193, 0.4134999999999999787 ) ;
#175 = DATE_AND_TIME ( #262, #275 ) ;
#176 = ORIENTED_EDGE ( 'NONE', *, *, #57, .F. ) ;
#177 = DIRECTION ( 'NONE',  ( 0.0000000000000000000, 1.000000000000000000, 0.0000000000000000000 ) ) ;
#178 = CARTESIAN_POINT ( 'NONE',  ( 3.491481338843132369E-16, -1.224646799147352498E-17, 0.09999999999999996392 ) ) ;
#179 = EDGE_CURVE ( 'NONE', #60, #60, #143, .T. ) ;
#180 = EDGE_LOOP ( 'NONE', ( #122 ) ) ;
#181 = ORIENTED_EDGE ( 'NONE', *, *, #57, .T. ) ;
#182 = PLANE ( 'NONE',  #3 ) ;
#183 = AXIS2_PLACEMENT_3D ( 'NONE', #288, #56, #158 ) ;
#184 = AXIS2_PLACEMENT_3D ( 'NONE', #277, #209, #208 ) ;
#185 = CARTESIAN_POINT ( 'NONE',  ( 3.491481338843134341E-16, 0.4134999999999993681, 0.1000000000000000194 ) ) ;
#186 = PLANE ( 'NONE',  #8 ) ;
#187 = DIRECTION ( 'NONE',  ( -3.491481338843133355E-15, 1.224646799147352961E-16, -1.000000000000000000 ) ) ;
#188 = APPROVAL ( #124, 'UNSPECIFIED' ) ;
#189 = FACE_OUTER_BOUND ( 'NONE', #76, .T. ) ;
#190 = CARTESIAN_POINT ( 'NONE',  ( 1.326762908760390423E-13, 1.199999999999998845, 38.00000000000000000 ) ) ;
#191 = PERSON_AND_ORGANIZATION ( #214, #102 ) ;
#192 = ADVANCED_FACE ( 'NONE', ( #141, #278 ), #212, .T. ) ;
#193 = AXIS2_PLACEMENT_3D ( 'NONE', #78, #157, #247 ) ;
#194 = PERSON_AND_ORGANIZATION ( #214, #102 ) ;
#195 = PERSON_AND_ORGANIZATION_ROLE ( 'creator' ) ;
#196 = PRODUCT ( '200025', '200025', '', ( #171 ) ) ;
#197 = CIRCLE ( 'NONE', #274, 1.200000000000003286 ) ;
#198 =( GEOMETRIC_REPRESENTATION_CONTEXT ( 3 ) GLOBAL_UNCERTAINTY_ASSIGNED_CONTEXT ( ( #133 ) ) GLOBAL_UNIT_ASSIGNED_CONTEXT ( ( #152, #47, #151 ) ) REPRESENTATION_CONTEXT ( 'NONE', 'WORKASPACE' ) );
#199 = FACE_OUTER_BOUND ( 'NONE', #216, .T. ) ;
#200 = ORIENTED_EDGE ( 'NONE', *, *, #104, .T. ) ;
#201 = DIRECTION ( 'NONE',  ( -3.491481338843133355E-15, 1.224646799147352961E-16, -1.000000000000000000 ) ) ;
#202 = CC_DESIGN_PERSON_AND_ORGANIZATION_ASSIGNMENT ( #94, #96, ( #159 ) ) ;
#203 = CC_DESIGN_APPROVAL ( #140, ( #10 ) ) ;
#204 = FACE_OUTER_BOUND ( 'NONE', #58, .T. ) ;
#205 = CARTESIAN_POINT ( 'NONE',  ( 3.142333204958820020E-14, -1.301042606982605321E-15, 9.000000000000000000 ) ) ;
#206 = VERTEX_POINT ( 'NONE', #276 ) ;
#207 = AXIS2_PLACEMENT_3D ( 'NONE', #65, #144, #161 ) ;
#208 = DIRECTION ( 'NONE',  ( 4.275831445896958607E-31, 1.000000000000000000, 1.224646799147352961E-16 ) ) ;
#209 = DIRECTION ( 'NONE',  ( -3.491481338843133355E-15, 1.224646799147352961E-16, -1.000000000000000000 ) ) ;
#210 = VERTEX_POINT ( 'NONE', #88 ) ;
#211 = CARTESIAN_POINT ( 'NONE',  ( 1.745740669421566678E-14, -6.123233995736765296E-16, 5.000000000000000000 ) ) ;
#212 = CONICAL_SURFACE ( 'NONE', #256, 0.4134999999999993681, 0.5235987755982930425 ) ;
#213 = CALENDAR_DATE ( 2021, 29, 11 ) ;
#214 = PERSON ( 'UNSPECIFIED', 'UNSPECIFIED', 'UNSPECIFIED', ('UNSPECIFIED'), ('UNSPECIFIED'), ('UNSPECIFIED') ) ;
#215 = ORIENTED_EDGE ( 'NONE', *, *, #71, .F. ) ;
#216 = EDGE_LOOP ( 'NONE', ( #73 ) ) ;
#217 = CARTESIAN_POINT ( 'NONE',  ( 1.745740669421566678E-14, 0.4134999999999993681, 5.000000000000000000 ) ) ;
#218 = ADVANCED_FACE ( 'NONE', ( #18 ), #230, .F. ) ;
#219 = DATE_AND_TIME ( #213, #295 ) ;
#220 = ORIENTED_EDGE ( 'NONE', *, *, #179, .T. ) ;
#221 = APPROVAL_DATE_TIME ( #7, #35 ) ;
#222 = ORIENTED_EDGE ( 'NONE', *, *, #39, .T. ) ;
#223 = CARTESIAN_POINT ( 'NONE',  ( 3.263591079328455776E-14, -1.144713656224131229E-15, 9.347296355333845952 ) ) ;
#224 = FACE_OUTER_BOUND ( 'NONE', #249, .T. ) ;
#225 = CARTESIAN_POINT ( 'NONE',  ( 0.0000000000000000000, 0.0000000000000000000, 0.0000000000000000000 ) ) ;
#226 = FACE_OUTER_BOUND ( 'NONE', #244, .T. ) ;
#227 = CARTESIAN_POINT ( 'NONE',  ( 1.326762908760390423E-13, 8.998558695971099120E-33, 38.00000000000000000 ) ) ;
#228 = FACE_OUTER_BOUND ( 'NONE', #68, .T. ) ;
#229 = AXIS2_PLACEMENT_3D ( 'NONE', #205, #292, #85 ) ;
#230 = PLANE ( 'NONE',  #128 ) ;
#231 = CYLINDRICAL_SURFACE ( 'NONE', #207, 1.500000000000000444 ) ;
#232 = FACE_OUTER_BOUND ( 'NONE', #263, .T. ) ;
#233 = CARTESIAN_POINT ( 'NONE',  ( 5.431058359229120707E-14, -1.904958838421344876E-15, 15.55516937412200740 ) ) ;
#234 = CONICAL_SURFACE ( 'NONE', #100, 1.200000000000003286, 0.7853981633974453924 ) ;
#235 = COORDINATED_UNIVERSAL_TIME_OFFSET ( 1, 0, .AHEAD. ) ;
#236 = APPROVAL_STATUS ( 'not_yet_approved' ) ;
#237 = ORIENTED_EDGE ( 'NONE', *, *, #49, .F. ) ;
#238 = PERSON_AND_ORGANIZATION ( #214, #102 ) ;
#239 = CONICAL_SURFACE ( 'NONE', #108, 1.499999999999997335, 0.1745329251994261477 ) ;
#240 = ORIENTED_EDGE ( 'NONE', *, *, #104, .F. ) ;
#241 = LOCAL_TIME ( 15, 49, 18.00000000000000000, #121 ) ;
#242 = PERSON_AND_ORGANIZATION ( #214, #102 ) ;
#243 = EDGE_LOOP ( 'NONE', ( #55 ) ) ;
#244 = EDGE_LOOP ( 'NONE', ( #200 ) ) ;
#245 = EDGE_CURVE ( 'NONE', #139, #139, #261, .T. ) ;
#246 = LOCAL_TIME ( 15, 49, 18.00000000000000000, #235 ) ;
#247 = DIRECTION ( 'NONE',  ( 0.0000000000000000000, 1.000000000000000000, 0.0000000000000000000 ) ) ;
#248 = CARTESIAN_POINT ( 'NONE',  ( 1.316288464743861212E-13, -4.616918432785520292E-15, 37.69999999999999574 ) ) ;
#249 = EDGE_LOOP ( 'NONE', ( #181 ) ) ;
#250 = DIRECTION ( 'NONE',  ( 4.275831445896958607E-31, 1.000000000000000000, 1.224646799147352961E-16 ) ) ;
#251 = APPLICATION_CONTEXT ( 'configuration controlled 3d designs of mechanical parts and assemblies' ) ;
#252 = CARTESIAN_POINT ( 'NONE',  ( 2.138211768073756517E-47, 0.3557649730810375499, 0.0000000000000000000 ) ) ;
#253 = CARTESIAN_POINT ( 'NONE',  ( 1.745740669421566678E-14, 3.100753350653379848E-33, 5.000000000000000000 ) ) ;
#254 = CC_DESIGN_PERSON_AND_ORGANIZATION_ASSIGNMENT ( #98, #195, ( #10 ) ) ;
#255 = CIRCLE ( 'NONE', #126, 1.499999999999997335 ) ;
#256 = AXIS2_PLACEMENT_3D ( 'NONE', #92, #145, #61 ) ;
#257 = PLANE ( 'NONE',  #59 ) ;
#258 = FACE_OUTER_BOUND ( 'NONE', #266, .T. ) ;
#259 = VERTEX_POINT ( 'NONE', #36 ) ;
#260 = APPROVAL_ROLE ( '' ) ;
#261 = CIRCLE ( 'NONE', #33, 0.4134999999999999787 ) ;
#262 = CALENDAR_DATE ( 2021, 29, 11 ) ;
#263 = EDGE_LOOP ( 'NONE', ( #220 ) ) ;
#264 = APPROVAL_PERSON_ORGANIZATION ( #191, #35, #260 ) ;
#265 = APPLICATION_PROTOCOL_DEFINITION ( 'international standard', 'config_control_design', 1994, #84 ) ;
#266 = EDGE_LOOP ( 'NONE', ( #48 ) ) ;
#267 = DIRECTION ( 'NONE',  ( -3.491481338843133355E-15, 1.224646799147352961E-16, -1.000000000000000000 ) ) ;
#268 = EDGE_LOOP ( 'NONE', ( #83 ) ) ;
#269 = AXIS2_PLACEMENT_3D ( 'NONE', #223, #267, #138 ) ;
#270 = CARTESIAN_POINT ( 'NONE',  ( 3.142333204958820020E-14, -1.102182119232617517E-15, 9.000000000000000000 ) ) ;
#271 = ADVANCED_FACE ( 'NONE', ( #232 ), #257, .F. ) ;
#272 = FACE_BOUND ( 'NONE', #132, .T. ) ;
#273 = DIRECTION ( 'NONE',  ( 0.0000000000000000000, 1.000000000000000000, 0.0000000000000000000 ) ) ;
#274 = AXIS2_PLACEMENT_3D ( 'NONE', #11, #30, #286 ) ;
#275 = LOCAL_TIME ( 15, 49, 18.00000000000000000, #25 ) ;
#276 = CARTESIAN_POINT ( 'NONE',  ( 5.431058359229120707E-14, 1.499999999999995559, 15.55516937412200740 ) ) ;
#277 = CARTESIAN_POINT ( 'NONE',  ( -1.521191059248585049E-31, 5.335619987067182995E-33, -4.356864355324368353E-17 ) ) ;
#278 = FACE_OUTER_BOUND ( 'NONE', #172, .T. ) ;
#279 = CARTESIAN_POINT ( 'NONE',  ( 1.769023248250903903E-14, -6.204898289118584630E-16, 5.066683956091403651 ) ) ;
#280 = DIRECTION ( 'NONE',  ( 0.0000000000000000000, -1.000000000000000000, 0.0000000000000000000 ) ) ;
#281 = APPROVAL_STATUS ( 'not_yet_approved' ) ;
#282 = EDGE_LOOP ( 'NONE', ( #125 ) ) ;
#283 = CIRCLE ( 'NONE', #95, 0.4134999999999993681 ) ;
#284 = APPROVAL_DATE_TIME ( #219, #188 ) ;
#285 = PERSON_AND_ORGANIZATION_ROLE ( 'creator' ) ;
#286 = DIRECTION ( 'NONE',  ( 0.0000000000000000000, 1.000000000000000000, 0.0000000000000000000 ) ) ;
#287 = ORIENTED_EDGE ( 'NONE', *, *, #90, .F. ) ;
#288 = CARTESIAN_POINT ( 'NONE',  ( 0.0000000000000000000, 0.0000000000000000000, 0.0000000000000000000 ) ) ;
#289 = PRODUCT_RELATED_PRODUCT_CATEGORY ( 'detail', '', ( #196 ) ) ;
#290 = CONICAL_SURFACE ( 'NONE', #44, 0.3749999999999995004, 0.5235987755982918213 ) ;
#291 = DIRECTION ( 'NONE',  ( 0.0000000000000000000, 1.000000000000000000, 0.0000000000000000000 ) ) ;
#292 = DIRECTION ( 'NONE',  ( -3.491481338843133355E-15, 1.224646799147352961E-16, -1.000000000000000000 ) ) ;
#293 = DIRECTION ( 'NONE',  ( -3.491481338843133355E-15, 1.224646799147352961E-16, -1.000000000000000000 ) ) ;
#294 = AXIS2_PLACEMENT_3D ( 'NONE', #270, #34, #177 ) ;
#295 = LOCAL_TIME ( 15, 49, 18.00000000000000000, #303 ) ;
#296 = ADVANCED_FACE ( 'NONE', ( #258 ), #186, .T. ) ;
#297 = VERTEX_POINT ( 'NONE', #118 ) ;
#298 = DIRECTION ( 'NONE',  ( -3.491481338843133355E-15, 1.224646799147352961E-16, -1.000000000000000000 ) ) ;
#299 = CARTESIAN_POINT ( 'NONE',  ( 1.316288464743861212E-13, 1.499999999999998668, 37.69999999999999574 ) ) ;
#300 = DIRECTION ( 'NONE',  ( 3.491481338843133355E-15, -1.224646799147352961E-16, 1.000000000000000000 ) ) ;
#301 = MANIFOLD_SOLID_BREP ( 'Corps-Déplacer/Copier1[1]', #20 ) ;
#302 = CALENDAR_DATE ( 2021, 29, 11 ) ;
#303 = COORDINATED_UNIVERSAL_TIME_OFFSET ( 1, 0, .AHEAD. ) ;
ENDSEC;
END-ISO-10303-21;
