ISO-10303-21;
HEADER;
FILE_DESCRIPTION (( 'STEP AP203' ),
    '1' );
FILE_NAME ('200024.step',
    '2021-11-29T14:49:17',
    ( '' ),
    ( '' ),
    'SwSTEP 2.0',
    'SolidWorks 2019',
    '' );
FILE_SCHEMA (( 'CONFIG_CONTROL_DESIGN' ));
ENDSEC;

DATA;
#1 = ORIENTED_EDGE ( 'NONE', *, *, #102, .F. ) ;
#2 = CYLINDRICAL_SURFACE ( 'NONE', #90, 0.4099999999999997535 ) ;
#3 = ADVANCED_FACE ( 'NONE', ( #12, #225 ), #201, .T. ) ;
#4 = ORIENTED_EDGE ( 'NONE', *, *, #165, .T. ) ;
#5 = DIRECTION ( 'NONE',  ( -3.491481338843133355E-15, 1.224646799147352961E-16, -1.000000000000000000 ) ) ;
#6 = CARTESIAN_POINT ( 'NONE',  ( 6.982962677686266711E-16, -2.449293598294705613E-17, 0.1999999999999999833 ) ) ;
#7 = CARTESIAN_POINT ( 'NONE',  ( 5.361754247987313568E-14, -1.880650228475242960E-15, 15.35667451043537923 ) ) ;
#8 = CYLINDRICAL_SURFACE ( 'NONE', #35, 0.4534999999999996811 ) ;
#9 = APPROVAL_DATE_TIME ( #171, #154 ) ;
#10 = EDGE_CURVE ( 'NONE', #173, #173, #142, .T. ) ;
#11 = CARTESIAN_POINT ( 'NONE',  ( 1.745740669421566678E-14, 0.4534999999999994036, 5.000000000000000000 ) ) ;
#12 = FACE_OUTER_BOUND ( 'NONE', #91, .T. ) ;
#13 = CARTESIAN_POINT ( 'NONE',  ( 1.326762908760390423E-13, -4.653657836759941152E-15, 38.00000000000000000 ) ) ;
#14 = COORDINATED_UNIVERSAL_TIME_OFFSET ( 1, 0, .AHEAD. ) ;
#15 = CLOSED_SHELL ( 'NONE', ( #248, #66, #239, #272 ) ) ;
#16 = VERTEX_POINT ( 'NONE', #152 ) ;
#17 = COORDINATED_UNIVERSAL_TIME_OFFSET ( 1, 0, .AHEAD. ) ;
#18 = DIRECTION ( 'NONE',  ( -4.246813548814197355E-31, -1.000000000000000000, -1.195371744746974558E-16 ) ) ;
#19 = EDGE_LOOP ( 'NONE', ( #212 ) ) ;
#20 = DIRECTION ( 'NONE',  ( 0.0000000000000000000, 1.000000000000000000, 0.0000000000000000000 ) ) ;
#21 = PERSON_AND_ORGANIZATION ( #244, #240 ) ;
#22 = ORIENTED_EDGE ( 'NONE', *, *, #160, .F. ) ;
#23 = AXIS2_PLACEMENT_3D ( 'NONE', #13, #41, #170 ) ;
#24 = COORDINATED_UNIVERSAL_TIME_OFFSET ( 1, 0, .AHEAD. ) ;
#25 = AXIS2_PLACEMENT_3D ( 'NONE', #258, #222, #34 ) ;
#26 = FACE_OUTER_BOUND ( 'NONE', #159, .T. ) ;
#27 = PRODUCT_RELATED_PRODUCT_CATEGORY ( 'detail', '', ( #253 ) ) ;
#28 = EDGE_LOOP ( 'NONE', ( #186 ) ) ;
#29 = DIRECTION ( 'NONE',  ( -3.491481338843133355E-15, 1.224646799147352961E-16, -1.000000000000000000 ) ) ;
#30 = FACE_OUTER_BOUND ( 'NONE', #49, .T. ) ;
#31 = CLOSED_SHELL ( 'NONE', ( #158, #214, #149, #185, #227, #3, #291, #169 ) ) ;
#32 = DIRECTION ( 'NONE',  ( 0.0000000000000000000, 1.000000000000000000, 0.0000000000000000000 ) ) ;
#33 = DIRECTION ( 'NONE',  ( -3.491481338843133355E-15, 1.224646799147352961E-16, -1.000000000000000000 ) ) ;
#34 = DIRECTION ( 'NONE',  ( 0.0000000000000000000, 1.000000000000000000, 0.0000000000000000000 ) ) ;
#35 = AXIS2_PLACEMENT_3D ( 'NONE', #97, #140, #144 ) ;
#36 = VERTEX_POINT ( 'NONE', #294 ) ;
#37 = CIRCLE ( 'NONE', #42, 1.200000000000003286 ) ;
#38 = DIRECTION ( 'NONE',  ( 0.0000000000000000000, 0.0000000000000000000, 1.000000000000000000 ) ) ;
#39 = PERSON_AND_ORGANIZATION_ROLE ( 'creator' ) ;
#40 =( NAMED_UNIT ( * ) PLANE_ANGLE_UNIT ( ) SI_UNIT ( $, .RADIAN. ) );
#41 = DIRECTION ( 'NONE',  ( -3.491481338843133355E-15, 1.224646799147352961E-16, -1.000000000000000000 ) ) ;
#42 = AXIS2_PLACEMENT_3D ( 'NONE', #264, #74, #261 ) ;
#43 = DIRECTION ( 'NONE',  ( 4.275831445896957731E-31, 1.000000000000000000, 1.224646799147353207E-16 ) ) ;
#44 = CC_DESIGN_PERSON_AND_ORGANIZATION_ASSIGNMENT ( #183, #179, ( #174 ) ) ;
#45 = SECURITY_CLASSIFICATION_LEVEL ( 'unclassified' ) ;
#46 = CARTESIAN_POINT ( 'NONE',  ( 3.142333204958820020E-14, -1.102182119232617517E-15, 9.000000000000000000 ) ) ;
#47 = ORIENTED_EDGE ( 'NONE', *, *, #102, .T. ) ;
#48 = PERSON_AND_ORGANIZATION ( #244, #240 ) ;
#49 = EDGE_LOOP ( 'NONE', ( #300 ) ) ;
#50 = ORIENTED_EDGE ( 'NONE', *, *, #165, .F. ) ;
#51 = CONICAL_SURFACE ( 'NONE', #221, 0.4099999999999994760, 0.5235987755982937086 ) ;
#52 = ORIENTED_EDGE ( 'NONE', *, *, #84, .F. ) ;
#53 = DIRECTION ( 'NONE',  ( 4.275831445896957731E-31, 1.000000000000000000, 1.224646799147352961E-16 ) ) ;
#54 = EDGE_LOOP ( 'NONE', ( #52 ) ) ;
#55 = CARTESIAN_POINT ( 'NONE',  ( 1.772046959787181091E-14, -6.215504041505834086E-16, 5.075344210129247635 ) ) ;
#56 = FACE_OUTER_BOUND ( 'NONE', #303, .T. ) ;
#57 = ORIENTED_EDGE ( 'NONE', *, *, #84, .T. ) ;
#58 = DIRECTION ( 'NONE',  ( 0.0000000000000000000, 1.000000000000000000, 0.0000000000000000000 ) ) ;
#59 = FACE_OUTER_BOUND ( 'NONE', #207, .T. ) ;
#60 =( NAMED_UNIT ( * ) SI_UNIT ( $, .STERADIAN. ) SOLID_ANGLE_UNIT ( ) );
#61 = CC_DESIGN_PERSON_AND_ORGANIZATION_ASSIGNMENT ( #48, #205, ( #178 ) ) ;
#62 = CALENDAR_DATE ( 2021, 29, 11 ) ;
#63 = APPLICATION_CONTEXT ( 'configuration controlled 3d designs of mechanical parts and assemblies' ) ;
#64 = APPROVAL ( #108, 'UNSPECIFIED' ) ;
#65 = APPLICATION_PROTOCOL_DEFINITION ( 'international standard', 'config_control_design', 1994, #63 ) ;
#66 = ADVANCED_FACE ( 'NONE', ( #270, #121 ), #276, .T. ) ;
#67 = APPROVAL_DATE_TIME ( #86, #259 ) ;
#68 = CALENDAR_DATE ( 2021, 29, 11 ) ;
#69 = EDGE_LOOP ( 'NONE', ( #104 ) ) ;
#70 = FACE_OUTER_BOUND ( 'NONE', #54, .T. ) ;
#71 = CARTESIAN_POINT ( 'NONE',  ( 1.745740669421566678E-14, -6.123233995736765296E-16, 5.000000000000000000 ) ) ;
#72 = DIRECTION ( 'NONE',  ( -3.491481338843133355E-15, 1.224646799147352961E-16, -1.000000000000000000 ) ) ;
#73 = APPLICATION_CONTEXT ( 'configuration controlled 3d designs of mechanical parts and assemblies' ) ;
#74 = DIRECTION ( 'NONE',  ( -3.491481338843133355E-15, 1.224646799147352961E-16, -1.000000000000000000 ) ) ;
#75 = PLANE ( 'NONE',  #103 ) ;
#76 = DIRECTION ( 'NONE',  ( -3.491481338843133355E-15, 1.224646799147352961E-16, -1.000000000000000000 ) ) ;
#77 = DIRECTION ( 'NONE',  ( 3.491481338843133355E-15, -1.224646799147352961E-16, 1.000000000000000000 ) ) ;
#78 =( GEOMETRIC_REPRESENTATION_CONTEXT ( 3 ) GLOBAL_UNCERTAINTY_ASSIGNED_CONTEXT ( ( #148 ) ) GLOBAL_UNIT_ASSIGNED_CONTEXT ( ( #147, #40, #60 ) ) REPRESENTATION_CONTEXT ( 'NONE', 'WORKASPACE' ) );
#79 = CARTESIAN_POINT ( 'NONE',  ( 3.263591079328456407E-14, 0.4403844939755803267, 9.347296355333847728 ) ) ;
#80 = DIRECTION ( 'NONE',  ( -3.491481338843133355E-15, 1.224646799147352961E-16, -1.000000000000000000 ) ) ;
#81 = VERTEX_POINT ( 'NONE', #224 ) ;
#82 = PERSON_AND_ORGANIZATION ( #244, #240 ) ;
#83 = FACE_OUTER_BOUND ( 'NONE', #106, .T. ) ;
#84 = EDGE_CURVE ( 'NONE', #246, #246, #208, .T. ) ;
#85 = APPROVAL_ROLE ( '' ) ;
#86 = DATE_AND_TIME ( #299, #105 ) ;
#87 = EDGE_LOOP ( 'NONE', ( #57 ) ) ;
#88 = DIRECTION ( 'NONE',  ( -3.491481338843133355E-15, 1.224646799147352961E-16, -1.000000000000000000 ) ) ;
#89 = CALENDAR_DATE ( 2021, 29, 11 ) ;
#90 = AXIS2_PLACEMENT_3D ( 'NONE', #213, #93, #95 ) ;
#91 = EDGE_LOOP ( 'NONE', ( #260 ) ) ;
#92 = EDGE_LOOP ( 'NONE', ( #182 ) ) ;
#93 = DIRECTION ( 'NONE',  ( -3.491481338843133355E-15, 1.224646799147352961E-16, -1.000000000000000000 ) ) ;
#94 = PRODUCT_DEFINITION ( 'UNKNOWN', '', #178, #123 ) ;
#95 = DIRECTION ( 'NONE',  ( 4.275831445896957731E-31, 1.000000000000000000, 1.224646799147352961E-16 ) ) ;
#96 = DIRECTION ( 'NONE',  ( -4.275831445896957731E-31, -1.000000000000000000, -1.224646799147352961E-16 ) ) ;
#97 = CARTESIAN_POINT ( 'NONE',  ( 0.0000000000000000000, 0.0000000000000000000, 0.0000000000000000000 ) ) ;
#98 = APPROVAL_PERSON_ORGANIZATION ( #21, #64, #85 ) ;
#99 = CC_DESIGN_DATE_AND_TIME_ASSIGNMENT ( #134, #254, ( #174 ) ) ;
#100 = CALENDAR_DATE ( 2021, 29, 11 ) ;
#101 = APPROVAL_ROLE ( '' ) ;
#102 = EDGE_CURVE ( 'NONE', #16, #16, #37, .T. ) ;
#103 = AXIS2_PLACEMENT_3D ( 'NONE', #166, #33, #53 ) ;
#104 = ORIENTED_EDGE ( 'NONE', *, *, #223, .F. ) ;
#105 = LOCAL_TIME ( 15, 49, 17.00000000000000000, #17 ) ;
#106 = EDGE_LOOP ( 'NONE', ( #280 ) ) ;
#107 = PRODUCT_DEFINITION_SHAPE ( 'NONE', 'NONE',  #94 ) ;
#108 = APPROVAL_STATUS ( 'not_yet_approved' ) ;
#109 = CIRCLE ( 'NONE', #288, 0.4535000000000000142 ) ;
#110 = DIRECTION ( 'NONE',  ( -4.275831445896957731E-31, -1.000000000000000000, -1.224646799147352961E-16 ) ) ;
#111 = EDGE_CURVE ( 'NONE', #226, #226, #124, .T. ) ;
#112 = ORIENTED_EDGE ( 'NONE', *, *, #111, .F. ) ;
#113 = FACE_BOUND ( 'NONE', #281, .T. ) ;
#114 = APPROVAL_PERSON_ORGANIZATION ( #82, #259, #298 ) ;
#115 = LOCAL_TIME ( 15, 49, 17.00000000000000000, #24 ) ;
#116 = DIRECTION ( 'NONE',  ( -3.491481338843133355E-15, 1.224646799147352961E-16, -1.000000000000000000 ) ) ;
#117 = AXIS2_PLACEMENT_3D ( 'NONE', #232, #80, #20 ) ;
#118 = CARTESIAN_POINT ( 'NONE',  ( 1.745740669421566678E-14, 3.400705307185752191E-33, 5.000000000000000000 ) ) ;
#119 = CARTESIAN_POINT ( 'NONE',  ( 3.142333204958820020E-14, -1.301042606982605321E-15, 9.000000000000000000 ) ) ;
#120 = CC_DESIGN_PERSON_AND_ORGANIZATION_ASSIGNMENT ( #198, #39, ( #94 ) ) ;
#121 = FACE_OUTER_BOUND ( 'NONE', #133, .T. ) ;
#122 = PERSON_AND_ORGANIZATION ( #244, #240 ) ;
#123 = DESIGN_CONTEXT ( 'detailed design', #73, 'design' ) ;
#124 = CIRCLE ( 'NONE', #117, 0.4403844939755814369 ) ;
#125 = VERTEX_POINT ( 'NONE', #11 ) ;
#126 = CC_DESIGN_DATE_AND_TIME_ASSIGNMENT ( #153, #295, ( #94 ) ) ;
#127 = CARTESIAN_POINT ( 'NONE',  ( 3.142333204958820020E-14, 0.4099999999999989209, 9.000000000000000000 ) ) ;
#128 = CONICAL_SURFACE ( 'NONE', #217, 1.499999999999997335, 0.1745329251994260922 ) ;
#129 = APPROVAL_STATUS ( 'not_yet_approved' ) ;
#130 = CIRCLE ( 'NONE', #136, 0.3380299461620758783 ) ;
#131 = CARTESIAN_POINT ( 'NONE',  ( 1.745740669421566678E-14, 0.4534999999999994036, 5.000000000000000000 ) ) ;
#132 = CC_DESIGN_PERSON_AND_ORGANIZATION_ASSIGNMENT ( #204, #233, ( #178 ) ) ;
#133 = EDGE_LOOP ( 'NONE', ( #4 ) ) ;
#134 = DATE_AND_TIME ( #68, #115 ) ;
#135 = ORIENTED_EDGE ( 'NONE', *, *, #143, .T. ) ;
#136 = AXIS2_PLACEMENT_3D ( 'NONE', #269, #5, #211 ) ;
#137 = EDGE_LOOP ( 'NONE', ( #237 ) ) ;
#138 = DIRECTION ( 'NONE',  ( 4.275831445896957731E-31, 1.000000000000000000, 1.224646799147352961E-16 ) ) ;
#139 = AXIS2_PLACEMENT_3D ( 'NONE', #55, #241, #32 ) ;
#140 = DIRECTION ( 'NONE',  ( -3.491481338843133355E-15, 1.224646799147352961E-16, -1.000000000000000000 ) ) ;
#141 = PLANE ( 'NONE',  #177 ) ;
#142 = CIRCLE ( 'NONE', #25, 1.499999999999997335 ) ;
#143 = EDGE_CURVE ( 'NONE', #125, #125, #266, .T. ) ;
#144 = DIRECTION ( 'NONE',  ( 4.275831445896958607E-31, 1.000000000000000000, 1.224646799147353207E-16 ) ) ;
#145 = CARTESIAN_POINT ( 'NONE',  ( 5.361754247987313568E-14, 1.499999999999995559, 15.35667451043537923 ) ) ;
#146 = MANIFOLD_SOLID_BREP ( 'Corps-Déplacer/Copier1[2]', #15 ) ;
#147 =( LENGTH_UNIT ( ) NAMED_UNIT ( * ) SI_UNIT ( .MILLI., .METRE. ) );
#148 = UNCERTAINTY_MEASURE_WITH_UNIT (LENGTH_MEASURE( 1.000000000000000082E-05 ), #147, 'distance_accuracy_value', 'NONE');
#149 = ADVANCED_FACE ( 'NONE', ( #83, #262 ), #2, .T. ) ;
#150 = AXIS2_PLACEMENT_3D ( 'NONE', #119, #29, #138 ) ;
#151 = VERTEX_POINT ( 'NONE', #275 ) ;
#152 = CARTESIAN_POINT ( 'NONE',  ( 1.326762908760390423E-13, 1.199999999999998845, 38.00000000000000000 ) ) ;
#153 = DATE_AND_TIME ( #100, #257 ) ;
#154 = APPROVAL ( #129, 'UNSPECIFIED' ) ;
#155 = CARTESIAN_POINT ( 'NONE',  ( 1.745740669421566678E-14, -6.123233995736765296E-16, 5.000000000000000000 ) ) ;
#156 = LOCAL_TIME ( 15, 49, 17.00000000000000000, #278 ) ;
#157 = APPROVAL_DATE_TIME ( #209, #64 ) ;
#158 = ADVANCED_FACE ( 'NONE', ( #187 ), #282, .F. ) ;
#159 = EDGE_LOOP ( 'NONE', ( #184 ) ) ;
#160 = EDGE_CURVE ( 'NONE', #151, #151, #130, .T. ) ;
#161 = FACE_OUTER_BOUND ( 'NONE', #230, .T. ) ;
#162 = CARTESIAN_POINT ( 'NONE',  ( 1.772046959787181091E-14, -6.215504041505834086E-16, 5.075344210129247635 ) ) ;
#163 = DIRECTION ( 'NONE',  ( 0.0000000000000000000, 1.000000000000000000, 0.0000000000000000000 ) ) ;
#164 = AXIS2_PLACEMENT_3D ( 'NONE', #290, #38, #172 ) ;
#165 = EDGE_CURVE ( 'NONE', #200, #200, #196, .T. ) ;
#166 = CARTESIAN_POINT ( 'NONE',  ( 1.326762908760390423E-13, 8.998558695971099120E-33, 38.00000000000000000 ) ) ;
#167 = AXIS2_PLACEMENT_3D ( 'NONE', #155, #297, #176 ) ;
#168 = FACE_BOUND ( 'NONE', #92, .T. ) ;
#169 = ADVANCED_FACE ( 'NONE', ( #161 ), #75, .F. ) ;
#170 = DIRECTION ( 'NONE',  ( 0.0000000000000000000, 1.000000000000000000, 0.0000000000000000000 ) ) ;
#171 = DATE_AND_TIME ( #62, #274 ) ;
#172 = DIRECTION ( 'NONE',  ( 1.000000000000000000, 0.0000000000000000000, 0.0000000000000000000 ) ) ;
#173 = VERTEX_POINT ( 'NONE', #145 ) ;
#174 = SECURITY_CLASSIFICATION ( '', '', #45 ) ;
#175 = CIRCLE ( 'NONE', #293, 1.500000000000003331 ) ;
#176 = DIRECTION ( 'NONE',  ( 0.0000000000000000000, 1.000000000000000000, 0.0000000000000000000 ) ) ;
#177 = AXIS2_PLACEMENT_3D ( 'NONE', #118, #216, #96 ) ;
#178 = PRODUCT_DEFINITION_FORMATION_WITH_SPECIFIED_SOURCE ( 'ANY', '', #253, .NOT_KNOWN. ) ;
#179 = PERSON_AND_ORGANIZATION_ROLE ( 'classification_officer' ) ;
#180 = DIRECTION ( 'NONE',  ( 0.0000000000000000000, 1.000000000000000000, 0.0000000000000000000 ) ) ;
#181 = AXIS2_PLACEMENT_3D ( 'NONE', #197, #77, #18 ) ;
#182 = ORIENTED_EDGE ( 'NONE', *, *, #268, .T. ) ;
#183 = PERSON_AND_ORGANIZATION ( #244, #240 ) ;
#184 = ORIENTED_EDGE ( 'NONE', *, *, #160, .T. ) ;
#185 = ADVANCED_FACE ( 'NONE', ( #70, #285 ), #234, .F. ) ;
#186 = ORIENTED_EDGE ( 'NONE', *, *, #223, .T. ) ;
#187 = FACE_OUTER_BOUND ( 'NONE', #235, .T. ) ;
#188 = ADVANCED_BREP_SHAPE_REPRESENTATION ( '200024', ( #255, #146, #164 ), #78 ) ;
#189 = ORIENTED_EDGE ( 'NONE', *, *, #111, .T. ) ;
#190 = DIRECTION ( 'NONE',  ( 4.246813548814197355E-31, 1.000000000000000000, 1.195371744746974558E-16 ) ) ;
#191 = CARTESIAN_POINT ( 'NONE',  ( 1.316288464743861212E-13, -4.616918432785520292E-15, 37.69999999999999574 ) ) ;
#192 = AXIS2_PLACEMENT_3D ( 'NONE', #263, #242, #110 ) ;
#193 = DIRECTION ( 'NONE',  ( 3.491481338843133355E-15, -1.224646799147352961E-16, 1.000000000000000000 ) ) ;
#194 = CC_DESIGN_APPROVAL ( #64, ( #174 ) ) ;
#195 = PLANE ( 'NONE',  #192 ) ;
#196 = CIRCLE ( 'NONE', #301, 0.4534999999999994036 ) ;
#197 = CARTESIAN_POINT ( 'NONE',  ( 6.982962677686266711E-16, -2.449293598294705613E-17, 0.1999999999999999833 ) ) ;
#198 = PERSON_AND_ORGANIZATION ( #244, #240 ) ;
#199 = CIRCLE ( 'NONE', #139, 0.4099999999999994760 ) ;
#200 = VERTEX_POINT ( 'NONE', #250 ) ;
#201 = CYLINDRICAL_SURFACE ( 'NONE', #279, 1.500000000000000444 ) ;
#202 = CONICAL_SURFACE ( 'NONE', #23, 1.200000000000003286, 0.7853981633974453924 ) ;
#203 = EDGE_CURVE ( 'NONE', #271, #271, #109, .T. ) ;
#204 = PERSON_AND_ORGANIZATION ( #244, #240 ) ;
#205 = PERSON_AND_ORGANIZATION_ROLE ( 'design_supplier' ) ;
#206 = EDGE_LOOP ( 'NONE', ( #189 ) ) ;
#207 = EDGE_LOOP ( 'NONE', ( #249 ) ) ;
#208 = CIRCLE ( 'NONE', #229, 0.4099999999999999756 ) ;
#209 = DATE_AND_TIME ( #89, #156 ) ;
#210 = CC_DESIGN_PERSON_AND_ORGANIZATION_ASSIGNMENT ( #122, #292, ( #253 ) ) ;
#211 = DIRECTION ( 'NONE',  ( 4.275831445896957731E-31, 1.000000000000000000, 1.224646799147353207E-16 ) ) ;
#212 = ORIENTED_EDGE ( 'NONE', *, *, #10, .T. ) ;
#213 = CARTESIAN_POINT ( 'NONE',  ( 0.0000000000000000000, 0.0000000000000000000, 0.0000000000000000000 ) ) ;
#214 = ADVANCED_FACE ( 'NONE', ( #59, #168 ), #51, .T. ) ;
#215 = DIRECTION ( 'NONE',  ( 3.491481338843133355E-15, -1.224646799147352961E-16, 1.000000000000000000 ) ) ;
#216 = DIRECTION ( 'NONE',  ( 3.491481338843133355E-15, -1.224646799147352961E-16, 1.000000000000000000 ) ) ;
#217 = AXIS2_PLACEMENT_3D ( 'NONE', #7, #193, #265 ) ;
#218 = FACE_OUTER_BOUND ( 'NONE', #137, .T. ) ;
#219 = CC_DESIGN_APPROVAL ( #259, ( #178 ) ) ;
#220 = PERSON_AND_ORGANIZATION ( #244, #240 ) ;
#221 = AXIS2_PLACEMENT_3D ( 'NONE', #162, #116, #238 ) ;
#222 = DIRECTION ( 'NONE',  ( -3.491481338843133355E-15, 1.224646799147352961E-16, -1.000000000000000000 ) ) ;
#223 = EDGE_CURVE ( 'NONE', #36, #36, #175, .T. ) ;
#224 = CARTESIAN_POINT ( 'NONE',  ( 1.772046959787181091E-14, 0.4099999999999989209, 5.075344210129247635 ) ) ;
#225 = FACE_OUTER_BOUND ( 'NONE', #28, .T. ) ;
#226 = VERTEX_POINT ( 'NONE', #79 ) ;
#227 = ADVANCED_FACE ( 'NONE', ( #113, #236 ), #128, .T. ) ;
#228 = COORDINATED_UNIVERSAL_TIME_OFFSET ( 1, 0, .AHEAD. ) ;
#229 = AXIS2_PLACEMENT_3D ( 'NONE', #46, #88, #180 ) ;
#230 = EDGE_LOOP ( 'NONE', ( #1 ) ) ;
#231 = CC_DESIGN_SECURITY_CLASSIFICATION ( #174, ( #178 ) ) ;
#232 = CARTESIAN_POINT ( 'NONE',  ( 3.263591079328456407E-14, -1.144713656224131427E-15, 9.347296355333847728 ) ) ;
#233 = PERSON_AND_ORGANIZATION_ROLE ( 'creator' ) ;
#234 = TOROIDAL_SURFACE ( 'NONE', #150, 2.410000000000000142, 2.000000000000000000 ) ;
#235 = EDGE_LOOP ( 'NONE', ( #135 ) ) ;
#236 = FACE_OUTER_BOUND ( 'NONE', #19, .T. ) ;
#237 = ORIENTED_EDGE ( 'NONE', *, *, #203, .T. ) ;
#238 = DIRECTION ( 'NONE',  ( 0.0000000000000000000, 1.000000000000000000, 0.0000000000000000000 ) ) ;
#239 = ADVANCED_FACE ( 'NONE', ( #56, #218 ), #8, .T. ) ;
#240 = ORGANIZATION ( 'UNSPECIFIED', 'UNSPECIFIED', '' ) ;
#241 = DIRECTION ( 'NONE',  ( -3.491481338843133355E-15, 1.224646799147352961E-16, -1.000000000000000000 ) ) ;
#242 = DIRECTION ( 'NONE',  ( 3.491481338843133355E-15, -1.224646799147352961E-16, 1.000000000000000000 ) ) ;
#243 = EDGE_LOOP ( 'NONE', ( #22 ) ) ;
#244 = PERSON ( 'UNSPECIFIED', 'UNSPECIFIED', 'UNSPECIFIED', ('UNSPECIFIED'), ('UNSPECIFIED'), ('UNSPECIFIED') ) ;
#245 = FACE_BOUND ( 'NONE', #284, .T. ) ;
#246 = VERTEX_POINT ( 'NONE', #127 ) ;
#247 = CC_DESIGN_APPROVAL ( #154, ( #94 ) ) ;
#248 = ADVANCED_FACE ( 'NONE', ( #26 ), #195, .F. ) ;
#249 = ORIENTED_EDGE ( 'NONE', *, *, #143, .F. ) ;
#250 = CARTESIAN_POINT ( 'NONE',  ( 6.982962677686268683E-16, 0.4534999999999994036, 0.2000000000000000389 ) ) ;
#251 = CARTESIAN_POINT ( 'NONE',  ( 0.0000000000000000000, 0.0000000000000000000, 0.0000000000000000000 ) ) ;
#252 = APPLICATION_PROTOCOL_DEFINITION ( 'international standard', 'config_control_design', 1994, #73 ) ;
#253 = PRODUCT ( '200024', '200024', '', ( #273 ) ) ;
#254 = DATE_TIME_ROLE ( 'classification_date' ) ;
#255 = MANIFOLD_SOLID_BREP ( 'Corps-Déplacer/Copier1[1]', #31 ) ;
#256 = DIRECTION ( 'NONE',  ( -3.491481338843133355E-15, 1.224646799147352961E-16, -1.000000000000000000 ) ) ;
#257 = LOCAL_TIME ( 15, 49, 17.00000000000000000, #14 ) ;
#258 = CARTESIAN_POINT ( 'NONE',  ( 5.361754247987313568E-14, -1.880650228475242960E-15, 15.35667451043537923 ) ) ;
#259 = APPROVAL ( #277, 'UNSPECIFIED' ) ;
#260 = ORIENTED_EDGE ( 'NONE', *, *, #10, .F. ) ;
#261 = DIRECTION ( 'NONE',  ( 0.0000000000000000000, 1.000000000000000000, 0.0000000000000000000 ) ) ;
#262 = FACE_OUTER_BOUND ( 'NONE', #87, .T. ) ;
#263 = CARTESIAN_POINT ( 'NONE',  ( -1.195863493323120294E-31, 4.194524493149894847E-33, -3.425089173523572153E-17 ) ) ;
#264 = CARTESIAN_POINT ( 'NONE',  ( 1.326762908760390423E-13, -4.653657836759941152E-15, 38.00000000000000000 ) ) ;
#265 = DIRECTION ( 'NONE',  ( 0.0000000000000000000, -1.000000000000000000, 0.0000000000000000000 ) ) ;
#266 = CIRCLE ( 'NONE', #167, 0.4535000000000000142 ) ;
#267 = DIRECTION ( 'NONE',  ( -3.491481338843133355E-15, 1.224646799147352961E-16, -1.000000000000000000 ) ) ;
#268 = EDGE_CURVE ( 'NONE', #81, #81, #199, .T. ) ;
#269 = CARTESIAN_POINT ( 'NONE',  ( -2.391726986646240589E-31, 8.389048986299789693E-33, -6.850178347047144306E-17 ) ) ;
#270 = FACE_BOUND ( 'NONE', #243, .T. ) ;
#271 = VERTEX_POINT ( 'NONE', #131 ) ;
#272 = ADVANCED_FACE ( 'NONE', ( #30 ), #141, .T. ) ;
#273 = MECHANICAL_CONTEXT ( 'NONE', #63, 'mechanical' ) ;
#274 = LOCAL_TIME ( 15, 49, 17.00000000000000000, #228 ) ;
#275 = CARTESIAN_POINT ( 'NONE',  ( -9.463679131915811161E-32, 0.3380299461620758783, -2.710505431213761701E-17 ) ) ;
#276 = CONICAL_SURFACE ( 'NONE', #181, 0.4534999999999994036, 0.5235987755982927094 ) ;
#277 = APPROVAL_STATUS ( 'not_yet_approved' ) ;
#278 = COORDINATED_UNIVERSAL_TIME_OFFSET ( 1, 0, .AHEAD. ) ;
#279 = AXIS2_PLACEMENT_3D ( 'NONE', #251, #256, #43 ) ;
#280 = ORIENTED_EDGE ( 'NONE', *, *, #268, .F. ) ;
#281 = EDGE_LOOP ( 'NONE', ( #112 ) ) ;
#282 = PLANE ( 'NONE',  #283 ) ;
#283 = AXIS2_PLACEMENT_3D ( 'NONE', #286, #215, #289 ) ;
#284 = EDGE_LOOP ( 'NONE', ( #47 ) ) ;
#285 = FACE_OUTER_BOUND ( 'NONE', #206, .T. ) ;
#286 = CARTESIAN_POINT ( 'NONE',  ( 1.745740669421566678E-14, 3.400705307185752191E-33, 5.000000000000000000 ) ) ;
#287 = FACE_OUTER_BOUND ( 'NONE', #69, .T. ) ;
#288 = AXIS2_PLACEMENT_3D ( 'NONE', #71, #267, #58 ) ;
#289 = DIRECTION ( 'NONE',  ( -4.275831445896957731E-31, -1.000000000000000000, -1.224646799147352961E-16 ) ) ;
#290 = CARTESIAN_POINT ( 'NONE',  ( 0.0000000000000000000, 0.0000000000000000000, 0.0000000000000000000 ) ) ;
#291 = ADVANCED_FACE ( 'NONE', ( #287, #245 ), #202, .T. ) ;
#292 = PERSON_AND_ORGANIZATION_ROLE ( 'design_owner' ) ;
#293 = AXIS2_PLACEMENT_3D ( 'NONE', #191, #72, #163 ) ;
#294 = CARTESIAN_POINT ( 'NONE',  ( 1.316288464743861212E-13, 1.499999999999998668, 37.69999999999999574 ) ) ;
#295 = DATE_TIME_ROLE ( 'creation_date' ) ;
#296 = APPROVAL_PERSON_ORGANIZATION ( #220, #154, #101 ) ;
#297 = DIRECTION ( 'NONE',  ( -3.491481338843133355E-15, 1.224646799147352961E-16, -1.000000000000000000 ) ) ;
#298 = APPROVAL_ROLE ( '' ) ;
#299 = CALENDAR_DATE ( 2021, 29, 11 ) ;
#300 = ORIENTED_EDGE ( 'NONE', *, *, #203, .F. ) ;
#301 = AXIS2_PLACEMENT_3D ( 'NONE', #6, #76, #190 ) ;
#302 = SHAPE_DEFINITION_REPRESENTATION ( #107, #188 ) ;
#303 = EDGE_LOOP ( 'NONE', ( #50 ) ) ;
ENDSEC;
END-ISO-10303-21;
