ISO-10303-21;
HEADER;
FILE_DESCRIPTION (( 'STEP AP203' ),
    '1' );
FILE_NAME ('200023.step',
    '2021-11-29T14:49:17',
    ( '' ),
    ( '' ),
    'SwSTEP 2.0',
    'SolidWorks 2019',
    '' );
FILE_SCHEMA (( 'CONFIG_CONTROL_DESIGN' ));
ENDSEC;

DATA;
#1 = ORIENTED_EDGE ( 'NONE', *, *, #166, .T. ) ;
#2 = PERSON_AND_ORGANIZATION_ROLE ( 'design_supplier' ) ;
#3 = ORIENTED_EDGE ( 'NONE', *, *, #106, .T. ) ;
#4 = PLANE ( 'NONE',  #187 ) ;
#5 = ORIENTED_EDGE ( 'NONE', *, *, #132, .T. ) ;
#6 = AXIS2_PLACEMENT_3D ( 'NONE', #223, #21, #281 ) ;
#7 = EDGE_CURVE ( 'NONE', #78, #78, #261, .T. ) ;
#8 = AXIS2_PLACEMENT_3D ( 'NONE', #60, #136, #116 ) ;
#9 = VERTEX_POINT ( 'NONE', #169 ) ;
#10 = CARTESIAN_POINT ( 'NONE',  ( 5.411257184588604471E-14, -1.898013521293886904E-15, 15.49845655592582716 ) ) ;
#11 = DIRECTION ( 'NONE',  ( 0.0000000000000000000, 0.0000000000000000000, 1.000000000000000000 ) ) ;
#12 = AXIS2_PLACEMENT_3D ( 'NONE', #268, #199, #163 ) ;
#13 = CYLINDRICAL_SURFACE ( 'NONE', #235, 0.4284999999999998255 ) ;
#14 = DIRECTION ( 'NONE',  ( 0.0000000000000000000, -1.000000000000000000, 0.0000000000000000000 ) ) ;
#15 = PERSON_AND_ORGANIZATION_ROLE ( 'design_owner' ) ;
#16 = EDGE_CURVE ( 'NONE', #264, #264, #195, .T. ) ;
#17 = DIRECTION ( 'NONE',  ( -3.491481338843133355E-15, 1.224646799147352961E-16, -1.000000000000000000 ) ) ;
#18 = ORIENTED_EDGE ( 'NONE', *, *, #73, .F. ) ;
#19 = DIRECTION ( 'NONE',  ( -3.491481338843133355E-15, 1.224646799147352961E-16, -1.000000000000000000 ) ) ;
#20 = ORIENTED_EDGE ( 'NONE', *, *, #258, .F. ) ;
#21 = DIRECTION ( 'NONE',  ( -3.491481338843133355E-15, 1.224646799147352961E-16, -1.000000000000000000 ) ) ;
#22 = PERSON_AND_ORGANIZATION ( #99, #142 ) ;
#23 = ADVANCED_FACE ( 'NONE', ( #279 ), #4, .T. ) ;
#24 = DATE_AND_TIME ( #184, #98 ) ;
#25 = EDGE_LOOP ( 'NONE', ( #3 ) ) ;
#26 = ADVANCED_FACE ( 'NONE', ( #44 ), #178, .F. ) ;
#27 =( NAMED_UNIT ( * ) SI_UNIT ( $, .STERADIAN. ) SOLID_ANGLE_UNIT ( ) );
#28 = AXIS2_PLACEMENT_3D ( 'NONE', #10, #224, #14 ) ;
#29 = ADVANCED_BREP_SHAPE_REPRESENTATION ( '200023', ( #30, #31, #124 ), #253 ) ;
#30 = MANIFOLD_SOLID_BREP ( 'Corps-Déplacer/Copier1[1]', #118 ) ;
#31 = MANIFOLD_SOLID_BREP ( 'Corps-Déplacer/Copier1[2]', #77 ) ;
#32 = VERTEX_POINT ( 'NONE', #127 ) ;
#33 = FACE_OUTER_BOUND ( 'NONE', #25, .T. ) ;
#34 = FACE_OUTER_BOUND ( 'NONE', #150, .T. ) ;
#35 = CONICAL_SURFACE ( 'NONE', #209, 0.4284999999999994924, 0.5235987755982918213 ) ;
#36 = DIRECTION ( 'NONE',  ( 0.0000000000000000000, 1.000000000000000000, 0.0000000000000000000 ) ) ;
#37 = APPROVAL ( #183, 'UNSPECIFIED' ) ;
#38 = CARTESIAN_POINT ( 'NONE',  ( 3.263591079328455776E-14, -1.144713656224131229E-15, 9.347296355333845952 ) ) ;
#39 = DIRECTION ( 'NONE',  ( 4.275831445896957731E-31, 1.000000000000000000, 1.224646799147352961E-16 ) ) ;
#40 = EDGE_LOOP ( 'NONE', ( #1 ) ) ;
#41 = FACE_OUTER_BOUND ( 'NONE', #200, .T. ) ;
#42 = CIRCLE ( 'NONE', #8, 1.499999999999997335 ) ;
#43 = CC_DESIGN_APPROVAL ( #172, ( #143 ) ) ;
#44 = FACE_OUTER_BOUND ( 'NONE', #40, .T. ) ;
#45 = CARTESIAN_POINT ( 'NONE',  ( 1.772046959787181091E-14, -6.215504041505834086E-16, 5.075344210129247635 ) ) ;
#46 = PERSON_AND_ORGANIZATION_ROLE ( 'classification_officer' ) ;
#47 = PERSON_AND_ORGANIZATION ( #99, #142 ) ;
#48 = EDGE_LOOP ( 'NONE', ( #5 ) ) ;
#49 = ADVANCED_FACE ( 'NONE', ( #41, #65 ), #13, .T. ) ;
#50 = APPROVAL_DATE_TIME ( #153, #37 ) ;
#51 = AXIS2_PLACEMENT_3D ( 'NONE', #128, #103, #36 ) ;
#52 = DIRECTION ( 'NONE',  ( -3.491481338843133355E-15, 1.224646799147352961E-16, -1.000000000000000000 ) ) ;
#53 = CARTESIAN_POINT ( 'NONE',  ( 1.745740669421566678E-14, 0.4284999999999994924, 5.000000000000000000 ) ) ;
#54 = AXIS2_PLACEMENT_3D ( 'NONE', #38, #299, #176 ) ;
#55 = LOCAL_TIME ( 15, 49, 17.00000000000000000, #74 ) ;
#56 = CARTESIAN_POINT ( 'NONE',  ( 1.326762908760390423E-13, 1.199999999999998845, 38.00000000000000000 ) ) ;
#57 = DIRECTION ( 'NONE',  ( 4.494585634509307099E-31, 1.000000000000000000, 1.265113386797556236E-16 ) ) ;
#58 = EDGE_CURVE ( 'NONE', #164, #164, #125, .T. ) ;
#59 = VERTEX_POINT ( 'NONE', #53 ) ;
#60 = CARTESIAN_POINT ( 'NONE',  ( 5.411257184588604471E-14, -1.898013521293886904E-15, 15.49845655592582716 ) ) ;
#61 = FACE_OUTER_BOUND ( 'NONE', #157, .T. ) ;
#62 = DIRECTION ( 'NONE',  ( 0.0000000000000000000, 1.000000000000000000, 0.0000000000000000000 ) ) ;
#63 = CARTESIAN_POINT ( 'NONE',  ( 1.745740669421566678E-14, -6.123233995736765296E-16, 5.000000000000000000 ) ) ;
#64 = ORIENTED_EDGE ( 'NONE', *, *, #211, .F. ) ;
#65 = FACE_OUTER_BOUND ( 'NONE', #182, .T. ) ;
#66 = COORDINATED_UNIVERSAL_TIME_OFFSET ( 1, 0, .AHEAD. ) ;
#67 = AXIS2_PLACEMENT_3D ( 'NONE', #250, #133, #201 ) ;
#68 = DIRECTION ( 'NONE',  ( -3.491481338843133355E-15, 1.224646799147352961E-16, -1.000000000000000000 ) ) ;
#69 = PERSON_AND_ORGANIZATION_ROLE ( 'creator' ) ;
#70 = ORIENTED_EDGE ( 'NONE', *, *, #106, .F. ) ;
#71 = APPROVAL_DATE_TIME ( #167, #172 ) ;
#72 = EDGE_LOOP ( 'NONE', ( #70 ) ) ;
#73 = EDGE_CURVE ( 'NONE', #85, #85, #273, .T. ) ;
#74 = COORDINATED_UNIVERSAL_TIME_OFFSET ( 1, 0, .AHEAD. ) ;
#75 = UNCERTAINTY_MEASURE_WITH_UNIT (LENGTH_MEASURE( 1.000000000000000082E-05 ), #240, 'distance_accuracy_value', 'NONE');
#76 = PERSON_AND_ORGANIZATION ( #99, #142 ) ;
#77 = CLOSED_SHELL ( 'NONE', ( #219, #217, #49, #23 ) ) ;
#78 = VERTEX_POINT ( 'NONE', #196 ) ;
#79 = ADVANCED_FACE ( 'NONE', ( #231, #91 ), #227, .T. ) ;
#80 = FACE_BOUND ( 'NONE', #48, .T. ) ;
#81 = AXIS2_PLACEMENT_3D ( 'NONE', #63, #52, #252 ) ;
#82 = CALENDAR_DATE ( 2021, 29, 11 ) ;
#83 = DIRECTION ( 'NONE',  ( -4.494585634509307099E-31, -1.000000000000000000, -1.265113386797556236E-16 ) ) ;
#84 = APPLICATION_CONTEXT ( 'configuration controlled 3d designs of mechanical parts and assemblies' ) ;
#85 = VERTEX_POINT ( 'NONE', #131 ) ;
#86 = PLANE ( 'NONE',  #151 ) ;
#87 = PLANE ( 'NONE',  #208 ) ;
#88 = FACE_OUTER_BOUND ( 'NONE', #204, .T. ) ;
#89 = TOROIDAL_SURFACE ( 'NONE', #266, 2.385000000000000231, 2.000000000000000000 ) ;
#90 = DIRECTION ( 'NONE',  ( -3.491481338843133355E-15, 1.224646799147352961E-16, -1.000000000000000000 ) ) ;
#91 = FACE_OUTER_BOUND ( 'NONE', #113, .T. ) ;
#92 = DATE_TIME_ROLE ( 'classification_date' ) ;
#93 = EDGE_LOOP ( 'NONE', ( #114 ) ) ;
#94 = ORIENTED_EDGE ( 'NONE', *, *, #258, .T. ) ;
#95 = ORIENTED_EDGE ( 'NONE', *, *, #211, .T. ) ;
#96 = CC_DESIGN_DATE_AND_TIME_ASSIGNMENT ( #24, #92, ( #111 ) ) ;
#97 = ORIENTED_EDGE ( 'NONE', *, *, #166, .F. ) ;
#98 = LOCAL_TIME ( 15, 49, 17.00000000000000000, #138 ) ;
#99 = PERSON ( 'UNSPECIFIED', 'UNSPECIFIED', 'UNSPECIFIED', ('UNSPECIFIED'), ('UNSPECIFIED'), ('UNSPECIFIED') ) ;
#100 = EDGE_CURVE ( 'NONE', #59, #59, #287, .T. ) ;
#101 = CARTESIAN_POINT ( 'NONE',  ( 3.491481338843132369E-16, -1.224646799147352498E-17, 0.09999999999999996392 ) ) ;
#102 = DIRECTION ( 'NONE',  ( 3.491481338843133355E-15, -1.224646799147352961E-16, 1.000000000000000000 ) ) ;
#103 = DIRECTION ( 'NONE',  ( -3.491481338843133355E-15, 1.224646799147352961E-16, -1.000000000000000000 ) ) ;
#104 = PRODUCT_DEFINITION_SHAPE ( 'NONE', 'NONE',  #143 ) ;
#105 = CARTESIAN_POINT ( 'NONE',  ( -7.926642654685203623E-32, 2.780291977233233350E-33, -2.270280687598237621E-17 ) ) ;
#106 = EDGE_CURVE ( 'NONE', #9, #9, #42, .T. ) ;
#107 = CARTESIAN_POINT ( 'NONE',  ( 1.316288464743861212E-13, -4.616918432785520292E-15, 37.69999999999999574 ) ) ;
#108 = FACE_OUTER_BOUND ( 'NONE', #202, .T. ) ;
#109 = EDGE_LOOP ( 'NONE', ( #18 ) ) ;
#110 = DIRECTION ( 'NONE',  ( 3.491481338843133355E-15, -1.224646799147352961E-16, 1.000000000000000000 ) ) ;
#111 = SECURITY_CLASSIFICATION ( '', '', #237 ) ;
#112 = PRODUCT_RELATED_PRODUCT_CATEGORY ( 'detail', '', ( #189 ) ) ;
#113 = EDGE_LOOP ( 'NONE', ( #213 ) ) ;
#114 = ORIENTED_EDGE ( 'NONE', *, *, #7, .F. ) ;
#115 = ORIENTED_EDGE ( 'NONE', *, *, #58, .F. ) ;
#116 = DIRECTION ( 'NONE',  ( 0.0000000000000000000, 1.000000000000000000, 0.0000000000000000000 ) ) ;
#117 = PERSON_AND_ORGANIZATION_ROLE ( 'creator' ) ;
#118 = CLOSED_SHELL ( 'NONE', ( #26, #230, #79, #276, #193, #148, #197, #159 ) ) ;
#119 = LOCAL_TIME ( 15, 49, 17.00000000000000000, #181 ) ;
#120 = APPROVAL_ROLE ( '' ) ;
#121 = EDGE_LOOP ( 'NONE', ( #94 ) ) ;
#122 = DATE_AND_TIME ( #156, #236 ) ;
#123 = CONICAL_SURFACE ( 'NONE', #28, 1.499999999999997335, 0.1745329251994260644 ) ;
#124 = AXIS2_PLACEMENT_3D ( 'NONE', #161, #11, #171 ) ;
#125 = CIRCLE ( 'NONE', #265, 0.3707649730810378963 ) ;
#126 = APPROVAL_PERSON_ORGANIZATION ( #212, #37, #186 ) ;
#127 = CARTESIAN_POINT ( 'NONE',  ( 1.772046959787181091E-14, 0.3849999999999990652, 5.075344210129247635 ) ) ;
#128 = CARTESIAN_POINT ( 'NONE',  ( 1.326762908760390423E-13, -4.653657836759941152E-15, 38.00000000000000000 ) ) ;
#129 = VERTEX_POINT ( 'NONE', #243 ) ;
#130 = CARTESIAN_POINT ( 'NONE',  ( 1.745740669421566678E-14, 3.213235334353020674E-33, 5.000000000000000000 ) ) ;
#131 = CARTESIAN_POINT ( 'NONE',  ( 3.263591079328455776E-14, 0.4153844939755802490, 9.347296355333845952 ) ) ;
#132 = EDGE_CURVE ( 'NONE', #32, #32, #246, .T. ) ;
#133 = DIRECTION ( 'NONE',  ( -3.491481338843133355E-15, 1.224646799147352961E-16, -1.000000000000000000 ) ) ;
#134 = ORIENTED_EDGE ( 'NONE', *, *, #73, .T. ) ;
#135 = CARTESIAN_POINT ( 'NONE',  ( 0.0000000000000000000, 0.0000000000000000000, 0.0000000000000000000 ) ) ;
#136 = DIRECTION ( 'NONE',  ( -3.491481338843133355E-15, 1.224646799147352961E-16, -1.000000000000000000 ) ) ;
#137 = APPROVAL_STATUS ( 'not_yet_approved' ) ;
#138 = COORDINATED_UNIVERSAL_TIME_OFFSET ( 1, 0, .AHEAD. ) ;
#139 = CC_DESIGN_APPROVAL ( #263, ( #111 ) ) ;
#140 = DESIGN_CONTEXT ( 'detailed design', #84, 'design' ) ;
#141 = CONICAL_SURFACE ( 'NONE', #12, 1.200000000000003286, 0.7853981633974453924 ) ;
#142 = ORGANIZATION ( 'UNSPECIFIED', 'UNSPECIFIED', '' ) ;
#143 = PRODUCT_DEFINITION ( 'UNKNOWN', '', #174, #140 ) ;
#144 = PERSON_AND_ORGANIZATION ( #99, #142 ) ;
#145 = FACE_BOUND ( 'NONE', #109, .T. ) ;
#146 = AXIS2_PLACEMENT_3D ( 'NONE', #107, #248, #62 ) ;
#147 = EDGE_LOOP ( 'NONE', ( #95 ) ) ;
#148 = ADVANCED_FACE ( 'NONE', ( #198, #149 ), #297, .T. ) ;
#149 = FACE_OUTER_BOUND ( 'NONE', #177, .T. ) ;
#150 = EDGE_LOOP ( 'NONE', ( #134 ) ) ;
#151 = AXIS2_PLACEMENT_3D ( 'NONE', #302, #175, #277 ) ;
#152 = CARTESIAN_POINT ( 'NONE',  ( 0.0000000000000000000, 0.0000000000000000000, 0.0000000000000000000 ) ) ;
#153 = DATE_AND_TIME ( #232, #119 ) ;
#154 = DIRECTION ( 'NONE',  ( 0.0000000000000000000, 1.000000000000000000, 0.0000000000000000000 ) ) ;
#155 = ORIENTED_EDGE ( 'NONE', *, *, #132, .F. ) ;
#156 = CALENDAR_DATE ( 2021, 29, 11 ) ;
#157 = EDGE_LOOP ( 'NONE', ( #207 ) ) ;
#158 = PERSON_AND_ORGANIZATION ( #99, #142 ) ;
#159 = ADVANCED_FACE ( 'NONE', ( #88 ), #86, .F. ) ;
#160 = CIRCLE ( 'NONE', #81, 0.4285000000000001030 ) ;
#161 = CARTESIAN_POINT ( 'NONE',  ( 0.0000000000000000000, 0.0000000000000000000, 0.0000000000000000000 ) ) ;
#162 = APPROVAL_STATUS ( 'not_yet_approved' ) ;
#163 = DIRECTION ( 'NONE',  ( 0.0000000000000000000, 1.000000000000000000, 0.0000000000000000000 ) ) ;
#164 = VERTEX_POINT ( 'NONE', #220 ) ;
#165 = AXIS2_PLACEMENT_3D ( 'NONE', #152, #225, #271 ) ;
#166 = EDGE_CURVE ( 'NONE', #192, #192, #160, .T. ) ;
#167 = DATE_AND_TIME ( #82, #55 ) ;
#168 = CARTESIAN_POINT ( 'NONE',  ( 3.142333204958820020E-14, -1.301042606982605321E-15, 9.000000000000000000 ) ) ;
#169 = CARTESIAN_POINT ( 'NONE',  ( 5.411257184588604471E-14, 1.499999999999995559, 15.49845655592582716 ) ) ;
#170 = CARTESIAN_POINT ( 'NONE',  ( -1.585328530937040725E-31, 5.560583954466466699E-33, -4.540561375196475241E-17 ) ) ;
#171 = DIRECTION ( 'NONE',  ( 1.000000000000000000, 0.0000000000000000000, 0.0000000000000000000 ) ) ;
#172 = APPROVAL ( #162, 'UNSPECIFIED' ) ;
#173 = FACE_OUTER_BOUND ( 'NONE', #93, .T. ) ;
#174 = PRODUCT_DEFINITION_FORMATION_WITH_SPECIFIED_SOURCE ( 'ANY', '', #189, .NOT_KNOWN. ) ;
#175 = DIRECTION ( 'NONE',  ( -3.491481338843133355E-15, 1.224646799147352961E-16, -1.000000000000000000 ) ) ;
#176 = DIRECTION ( 'NONE',  ( 0.0000000000000000000, 1.000000000000000000, 0.0000000000000000000 ) ) ;
#177 = EDGE_LOOP ( 'NONE', ( #257 ) ) ;
#178 = PLANE ( 'NONE',  #294 ) ;
#179 = EDGE_LOOP ( 'NONE', ( #155 ) ) ;
#180 = DIRECTION ( 'NONE',  ( -4.275831445896957731E-31, -1.000000000000000000, -1.224646799147352961E-16 ) ) ;
#181 = COORDINATED_UNIVERSAL_TIME_OFFSET ( 1, 0, .AHEAD. ) ;
#182 = EDGE_LOOP ( 'NONE', ( #303 ) ) ;
#183 = APPROVAL_STATUS ( 'not_yet_approved' ) ;
#184 = CALENDAR_DATE ( 2021, 29, 11 ) ;
#185 = CC_DESIGN_PERSON_AND_ORGANIZATION_ASSIGNMENT ( #47, #2, ( #174 ) ) ;
#186 = APPROVAL_ROLE ( '' ) ;
#187 = AXIS2_PLACEMENT_3D ( 'NONE', #130, #275, #256 ) ;
#188 = CIRCLE ( 'NONE', #218, 0.4284999999999994924 ) ;
#189 = PRODUCT ( '200023', '200023', '', ( #259 ) ) ;
#190 = APPROVAL_PERSON_ORGANIZATION ( #158, #263, #120 ) ;
#191 = DIRECTION ( 'NONE',  ( 4.275831445896957731E-31, 1.000000000000000000, 1.224646799147352961E-16 ) ) ;
#192 = VERTEX_POINT ( 'NONE', #270 ) ;
#193 = ADVANCED_FACE ( 'NONE', ( #145, #33 ), #123, .T. ) ;
#194 = DIRECTION ( 'NONE',  ( -3.491481338843133355E-15, 1.224646799147352961E-16, -1.000000000000000000 ) ) ;
#195 = CIRCLE ( 'NONE', #6, 0.3850000000000001199 ) ;
#196 = CARTESIAN_POINT ( 'NONE',  ( 1.316288464743861212E-13, 1.499999999999998668, 37.69999999999999574 ) ) ;
#197 = ADVANCED_FACE ( 'NONE', ( #173, #295 ), #141, .T. ) ;
#198 = FACE_OUTER_BOUND ( 'NONE', #72, .T. ) ;
#199 = DIRECTION ( 'NONE',  ( -3.491481338843133355E-15, 1.224646799147352961E-16, -1.000000000000000000 ) ) ;
#200 = EDGE_LOOP ( 'NONE', ( #20 ) ) ;
#201 = DIRECTION ( 'NONE',  ( 4.275831445896957731E-31, 1.000000000000000000, 1.224646799147353207E-16 ) ) ;
#202 = EDGE_LOOP ( 'NONE', ( #97 ) ) ;
#203 = APPROVAL_DATE_TIME ( #285, #263 ) ;
#204 = EDGE_LOOP ( 'NONE', ( #64 ) ) ;
#205 = DIRECTION ( 'NONE',  ( 0.0000000000000000000, 1.000000000000000000, 0.0000000000000000000 ) ) ;
#206 = SHAPE_DEFINITION_REPRESENTATION ( #104, #29 ) ;
#207 = ORIENTED_EDGE ( 'NONE', *, *, #58, .T. ) ;
#208 = AXIS2_PLACEMENT_3D ( 'NONE', #105, #102, #272 ) ;
#209 = AXIS2_PLACEMENT_3D ( 'NONE', #221, #226, #83 ) ;
#210 = ORIENTED_EDGE ( 'NONE', *, *, #100, .F. ) ;
#211 = EDGE_CURVE ( 'NONE', #267, #267, #280, .T. ) ;
#212 = PERSON_AND_ORGANIZATION ( #99, #142 ) ;
#213 = ORIENTED_EDGE ( 'NONE', *, *, #16, .T. ) ;
#214 = AXIS2_PLACEMENT_3D ( 'NONE', #45, #17, #205 ) ;
#215 = APPROVAL_PERSON_ORGANIZATION ( #144, #172, #290 ) ;
#216 =( NAMED_UNIT ( * ) PLANE_ANGLE_UNIT ( ) SI_UNIT ( $, .RADIAN. ) );
#217 = ADVANCED_FACE ( 'NONE', ( #292, #245 ), #35, .T. ) ;
#218 = AXIS2_PLACEMENT_3D ( 'NONE', #101, #194, #57 ) ;
#219 = ADVANCED_FACE ( 'NONE', ( #61 ), #87, .F. ) ;
#220 = CARTESIAN_POINT ( 'NONE',  ( 0.0000000000000000000, 0.3707649730810378963, 0.0000000000000000000 ) ) ;
#221 = CARTESIAN_POINT ( 'NONE',  ( 3.491481338843132369E-16, -1.224646799147352498E-17, 0.09999999999999996392 ) ) ;
#222 = CC_DESIGN_PERSON_AND_ORGANIZATION_ASSIGNMENT ( #76, #15, ( #189 ) ) ;
#223 = CARTESIAN_POINT ( 'NONE',  ( 3.142333204958819389E-14, -1.102182119232617319E-15, 8.999999999999998224 ) ) ;
#224 = DIRECTION ( 'NONE',  ( 3.491481338843133355E-15, -1.224646799147352961E-16, 1.000000000000000000 ) ) ;
#225 = DIRECTION ( 'NONE',  ( -3.491481338843133355E-15, 1.224646799147352961E-16, -1.000000000000000000 ) ) ;
#226 = DIRECTION ( 'NONE',  ( 3.491481338843133355E-15, -1.224646799147352961E-16, 1.000000000000000000 ) ) ;
#227 = CYLINDRICAL_SURFACE ( 'NONE', #165, 0.3849999999999998979 ) ;
#228 = AXIS2_PLACEMENT_3D ( 'NONE', #249, #242, #298 ) ;
#229 = DIRECTION ( 'NONE',  ( 4.275831445896957731E-31, 1.000000000000000000, 1.224646799147352961E-16 ) ) ;
#230 = ADVANCED_FACE ( 'NONE', ( #108, #80 ), #247, .T. ) ;
#231 = FACE_OUTER_BOUND ( 'NONE', #179, .T. ) ;
#232 = CALENDAR_DATE ( 2021, 29, 11 ) ;
#233 = COORDINATED_UNIVERSAL_TIME_OFFSET ( 1, 0, .AHEAD. ) ;
#234 = ORIENTED_EDGE ( 'NONE', *, *, #16, .F. ) ;
#235 = AXIS2_PLACEMENT_3D ( 'NONE', #135, #68, #229 ) ;
#236 = LOCAL_TIME ( 15, 49, 17.00000000000000000, #66 ) ;
#237 = SECURITY_CLASSIFICATION_LEVEL ( 'unclassified' ) ;
#238 = EDGE_LOOP ( 'NONE', ( #115 ) ) ;
#239 = APPLICATION_CONTEXT ( 'configuration controlled 3d designs of mechanical parts and assemblies' ) ;
#240 =( LENGTH_UNIT ( ) NAMED_UNIT ( * ) SI_UNIT ( .MILLI., .METRE. ) );
#241 = CC_DESIGN_DATE_AND_TIME_ASSIGNMENT ( #122, #283, ( #143 ) ) ;
#242 = DIRECTION ( 'NONE',  ( -3.491481338843133355E-15, 1.224646799147352961E-16, -1.000000000000000000 ) ) ;
#243 = CARTESIAN_POINT ( 'NONE',  ( 3.491481338843134341E-16, 0.4284999999999994924, 0.1000000000000000194 ) ) ;
#244 = FACE_OUTER_BOUND ( 'NONE', #284, .T. ) ;
#245 = FACE_OUTER_BOUND ( 'NONE', #121, .T. ) ;
#246 = CIRCLE ( 'NONE', #214, 0.3849999999999996758 ) ;
#247 = CONICAL_SURFACE ( 'NONE', #228, 0.3849999999999996758, 0.5235987755982931535 ) ;
#248 = DIRECTION ( 'NONE',  ( -3.491481338843133355E-15, 1.224646799147352961E-16, -1.000000000000000000 ) ) ;
#249 = CARTESIAN_POINT ( 'NONE',  ( 1.772046959787181091E-14, -6.215504041505834086E-16, 5.075344210129247635 ) ) ;
#250 = CARTESIAN_POINT ( 'NONE',  ( 0.0000000000000000000, 0.0000000000000000000, 0.0000000000000000000 ) ) ;
#251 = CARTESIAN_POINT ( 'NONE',  ( 1.745740669421566678E-14, 3.213235334353020674E-33, 5.000000000000000000 ) ) ;
#252 = DIRECTION ( 'NONE',  ( 0.0000000000000000000, 1.000000000000000000, 0.0000000000000000000 ) ) ;
#253 =( GEOMETRIC_REPRESENTATION_CONTEXT ( 3 ) GLOBAL_UNCERTAINTY_ASSIGNED_CONTEXT ( ( #75 ) ) GLOBAL_UNIT_ASSIGNED_CONTEXT ( ( #240, #216, #27 ) ) REPRESENTATION_CONTEXT ( 'NONE', 'WORKASPACE' ) );
#254 = CARTESIAN_POINT ( 'NONE',  ( 1.745740669421566678E-14, -6.123233995736765296E-16, 5.000000000000000000 ) ) ;
#255 = APPLICATION_PROTOCOL_DEFINITION ( 'international standard', 'config_control_design', 1994, #239 ) ;
#256 = DIRECTION ( 'NONE',  ( -4.275831445896957731E-31, -1.000000000000000000, -1.224646799147352961E-16 ) ) ;
#257 = ORIENTED_EDGE ( 'NONE', *, *, #7, .T. ) ;
#258 = EDGE_CURVE ( 'NONE', #129, #129, #188, .T. ) ;
#259 = MECHANICAL_CONTEXT ( 'NONE', #239, 'mechanical' ) ;
#260 = PERSON_AND_ORGANIZATION ( #99, #142 ) ;
#261 = CIRCLE ( 'NONE', #146, 1.500000000000003331 ) ;
#262 = AXIS2_PLACEMENT_3D ( 'NONE', #254, #19, #154 ) ;
#263 = APPROVAL ( #137, 'UNSPECIFIED' ) ;
#264 = VERTEX_POINT ( 'NONE', #296 ) ;
#265 = AXIS2_PLACEMENT_3D ( 'NONE', #170, #90, #39 ) ;
#266 = AXIS2_PLACEMENT_3D ( 'NONE', #168, #291, #191 ) ;
#267 = VERTEX_POINT ( 'NONE', #56 ) ;
#268 = CARTESIAN_POINT ( 'NONE',  ( 1.326762908760390423E-13, -4.653657836759941152E-15, 38.00000000000000000 ) ) ;
#269 = CC_DESIGN_PERSON_AND_ORGANIZATION_ASSIGNMENT ( #22, #46, ( #111 ) ) ;
#270 = CARTESIAN_POINT ( 'NONE',  ( 1.745740669421566678E-14, 0.4284999999999994924, 5.000000000000000000 ) ) ;
#271 = DIRECTION ( 'NONE',  ( 4.275831445896958607E-31, 1.000000000000000000, 1.224646799147352961E-16 ) ) ;
#272 = DIRECTION ( 'NONE',  ( -4.275831445896957731E-31, -1.000000000000000000, -1.224646799147352961E-16 ) ) ;
#273 = CIRCLE ( 'NONE', #54, 0.4153844939755814147 ) ;
#274 = LOCAL_TIME ( 15, 49, 17.00000000000000000, #233 ) ;
#275 = DIRECTION ( 'NONE',  ( 3.491481338843133355E-15, -1.224646799147352961E-16, 1.000000000000000000 ) ) ;
#276 = ADVANCED_FACE ( 'NONE', ( #244, #34 ), #89, .F. ) ;
#277 = DIRECTION ( 'NONE',  ( 4.275831445896957731E-31, 1.000000000000000000, 1.224646799147352961E-16 ) ) ;
#278 = EDGE_LOOP ( 'NONE', ( #210 ) ) ;
#279 = FACE_OUTER_BOUND ( 'NONE', #278, .T. ) ;
#280 = CIRCLE ( 'NONE', #51, 1.200000000000003286 ) ;
#281 = DIRECTION ( 'NONE',  ( 0.0000000000000000000, 1.000000000000000000, 0.0000000000000000000 ) ) ;
#282 = PERSON_AND_ORGANIZATION ( #99, #142 ) ;
#283 = DATE_TIME_ROLE ( 'creation_date' ) ;
#284 = EDGE_LOOP ( 'NONE', ( #234 ) ) ;
#285 = DATE_AND_TIME ( #286, #274 ) ;
#286 = CALENDAR_DATE ( 2021, 29, 11 ) ;
#287 = CIRCLE ( 'NONE', #262, 0.4285000000000001030 ) ;
#288 = CC_DESIGN_SECURITY_CLASSIFICATION ( #111, ( #174 ) ) ;
#289 = CC_DESIGN_PERSON_AND_ORGANIZATION_ASSIGNMENT ( #260, #69, ( #174 ) ) ;
#290 = APPROVAL_ROLE ( '' ) ;
#291 = DIRECTION ( 'NONE',  ( -3.491481338843133355E-15, 1.224646799147352961E-16, -1.000000000000000000 ) ) ;
#292 = FACE_BOUND ( 'NONE', #238, .T. ) ;
#293 = APPLICATION_PROTOCOL_DEFINITION ( 'international standard', 'config_control_design', 1994, #84 ) ;
#294 = AXIS2_PLACEMENT_3D ( 'NONE', #251, #110, #180 ) ;
#295 = FACE_BOUND ( 'NONE', #147, .T. ) ;
#296 = CARTESIAN_POINT ( 'NONE',  ( 3.142333204958819389E-14, 0.3849999999999990652, 8.999999999999998224 ) ) ;
#297 = CYLINDRICAL_SURFACE ( 'NONE', #67, 1.500000000000000444 ) ;
#298 = DIRECTION ( 'NONE',  ( 0.0000000000000000000, 1.000000000000000000, 0.0000000000000000000 ) ) ;
#299 = DIRECTION ( 'NONE',  ( -3.491481338843133355E-15, 1.224646799147352961E-16, -1.000000000000000000 ) ) ;
#300 = CC_DESIGN_PERSON_AND_ORGANIZATION_ASSIGNMENT ( #282, #117, ( #143 ) ) ;
#301 = CC_DESIGN_APPROVAL ( #37, ( #174 ) ) ;
#302 = CARTESIAN_POINT ( 'NONE',  ( 1.326762908760390423E-13, 8.998558695971099120E-33, 38.00000000000000000 ) ) ;
#303 = ORIENTED_EDGE ( 'NONE', *, *, #100, .T. ) ;
ENDSEC;
END-ISO-10303-21;
